  0
SECTION
  2
HEADER
  9
$ACADVER
  1
AC1015
  9
$ACADMAINTVER
 70
     6
  9
$DWGCODEPAGE
  3
ANSI_1254
  9
$INSBASE
 10
0.0
 20
0.0
 30
0.0
  9
$EXTMIN
 10
0.0
 20
0.0
 30
0.0
  9
$EXTMAX
 10
279.4
 20
215.9
 30
0.0
  9
$LIMMIN
 10
0.0
 20
0.0
  9
$LIMMAX
 10
279.4
 20
215.9
  9
$ORTHOMODE
 70
     0
  9
$REGENMODE
 70
     1
  9
$FILLMODE
 70
     1
  9
$QTEXTMODE
 70
     0
  9
$MIRRTEXT
 70
     1
  9
$LTSCALE
 40
1.0
  9
$ATTMODE
 70
     1
  9
$TEXTSIZE
 40
3.5
  9
$TRACEWID
 40
1.0
  9
$TEXTSTYLE
  7
Standard
  9
$CLAYER
  8
0
  9
$CELTYPE
  6
ByLayer
  9
$CECOLOR
 62
   256
  9
$CELTSCALE
 40
1.0
  9
$DISPSILH
 70
     0
  9
$DIMSCALE
 40
1.0
  9
$DIMASZ
 40
3.5
  9
$DIMEXO
 40
1.0
  9
$DIMDLI
 40
3.75
  9
$DIMRND
 40
0.0
  9
$DIMDLE
 40
0.0
  9
$DIMEXE
 40
1.0
  9
$DIMTP
 40
0.0
  9
$DIMTM
 40
0.0
  9
$DIMTXT
 40
3.5
  9
$DIMCEN
 40
2.5
  9
$DIMTSZ
 40
0.0
  9
$DIMTOL
 70
     0
  9
$DIMLIM
 70
     0
  9
$DIMTIH
 70
     1
  9
$DIMTOH
 70
     1
  9
$DIMSE1
 70
     0
  9
$DIMSE2
 70
     0
  9
$DIMTAD
 70
     1
  9
$DIMZIN
 70
     0
  9
$DIMBLK
  1

  9
$DIMASO
 70
     1
  9
$DIMSHO
 70
     1
  9
$DIMPOST
  1

  9
$DIMAPOST
  1

  9
$DIMALT
 70
     0
  9
$DIMALTD
 70
     3
  9
$DIMALTF
 40
0.0393700787
  9
$DIMLFAC
 40
1.0
  9
$DIMTOFL
 70
     1
  9
$DIMTVP
 40
0.0
  9
$DIMTIX
 70
     0
  9
$DIMSOXD
 70
     0
  9
$DIMSAH
 70
     0
  9
$DIMBLK1
  1

  9
$DIMBLK2
  1

  9
$DIMSTYLE
  2
ISO-25
  9
$DIMCLRD
 70
     0
  9
$DIMCLRE
 70
     0
  9
$DIMCLRT
 70
     0
  9
$DIMTFAC
 40
1.0
  9
$DIMGAP
 40
1.524
  9
$DIMJUST
 70
     0
  9
$DIMSD1
 70
     0
  9
$DIMSD2
 70
     0
  9
$DIMTOLJ
 70
     0
  9
$DIMTZIN
 70
     0
  9
$DIMALTZ
 70
     0
  9
$DIMALTTZ
 70
     0
  9
$DIMUPT
 70
     0
  9
$DIMDEC
 70
     2
  9
$DIMTDEC
 70
     2
  9
$DIMALTU
 70
     2
  9
$DIMALTTD
 70
     3
  9
$DIMTXSTY
  7
Standard
  9
$DIMAUNIT
 70
     0
  9
$DIMADEC
 70
     2
  9
$DIMALTRND
 40
0.0
  9
$DIMAZIN
 70
     0
  9
$DIMDSEP
 70
    44
  9
$DIMATFIT
 70
     3
  9
$DIMFRAC
 70
     0
  9
$DIMLDRBLK
  1

  9
$DIMLUNIT
 70
     2
  9
$DIMLWD
 70
    -2
  9
$DIMLWE
 70
    -2
  9
$DIMTMOVE
 70
     0
  9
$LUNITS
 70
     2
  9
$LUPREC
 70
     2
  9
$SKETCHINC
 40
1.0
  9
$FILLETRAD
 40
10.0
  9
$AUNITS
 70
     0
  9
$AUPREC
 70
     2
  9
$MENU
  1
.
  9
$ELEVATION
 40
0.0
  9
$PELEVATION
 40
0.0
  9
$THICKNESS
 40
0.0
  9
$LIMCHECK
 70
     0
  9
$CHAMFERA
 40
0.0
  9
$CHAMFERB
 40
0.0
  9
$CHAMFERC
 40
0.0
  9
$CHAMFERD
 40
0.0
  9
$SKPOLY
 70
     0
  9
$TDCREATE
 40
2459935.709219063
  9
$TDUCREATE
 40
2459935.584219063
  9
$TDUPDATE
 40
2459935.709219248
  9
$TDUUPDATE
 40
2459935.584219248
  9
$TDINDWG
 40
0.0000000116
  9
$TDUSRTIMER
 40
0.0000000116
  9
$USRTIMER
 70
     1
  9
$ANGBASE
 50
0.0
  9
$ANGDIR
 70
     0
  9
$PDMODE
 70
     0
  9
$PDSIZE
 40
-1.0
  9
$PLINEWID
 40
0.0
  9
$SPLFRAME
 70
     0
  9
$SPLINETYPE
 70
     6
  9
$SPLINESEGS
 70
     8
  9
$HANDSEED
  5
188
  9
$SURFTAB1
 70
     6
  9
$SURFTAB2
 70
     6
  9
$SURFTYPE
 70
     6
  9
$SURFU
 70
     6
  9
$SURFV
 70
     6
  9
$UCSBASE
  2

  9
$UCSNAME
  2

  9
$UCSORG
 10
0.0
 20
0.0
 30
0.0
  9
$UCSXDIR
 10
1.0
 20
0.0
 30
0.0
  9
$UCSYDIR
 10
0.0
 20
1.0
 30
0.0
  9
$UCSORTHOREF
  2

  9
$UCSORTHOVIEW
 70
     0
  9
$UCSORGTOP
 10
0.0
 20
0.0
 30
0.0
  9
$UCSORGBOTTOM
 10
0.0
 20
0.0
 30
0.0
  9
$UCSORGLEFT
 10
0.0
 20
0.0
 30
0.0
  9
$UCSORGRIGHT
 10
0.0
 20
0.0
 30
0.0
  9
$UCSORGFRONT
 10
0.0
 20
0.0
 30
0.0
  9
$UCSORGBACK
 10
0.0
 20
0.0
 30
0.0
  9
$PUCSBASE
  2

  9
$PUCSNAME
  2

  9
$PUCSORG
 10
0.0
 20
0.0
 30
0.0
  9
$PUCSXDIR
 10
1.0
 20
0.0
 30
0.0
  9
$PUCSYDIR
 10
0.0
 20
1.0
 30
0.0
  9
$PUCSORTHOREF
  2

  9
$PUCSORTHOVIEW
 70
     0
  9
$PUCSORGTOP
 10
0.0
 20
0.0
 30
0.0
  9
$PUCSORGBOTTOM
 10
0.0
 20
0.0
 30
0.0
  9
$PUCSORGLEFT
 10
0.0
 20
0.0
 30
0.0
  9
$PUCSORGRIGHT
 10
0.0
 20
0.0
 30
0.0
  9
$PUCSORGFRONT
 10
0.0
 20
0.0
 30
0.0
  9
$PUCSORGBACK
 10
0.0
 20
0.0
 30
0.0
  9
$USERI1
 70
     0
  9
$USERI2
 70
     0
  9
$USERI3
 70
     0
  9
$USERI4
 70
     0
  9
$USERI5
 70
     0
  9
$USERR1
 40
0.0
  9
$USERR2
 40
0.0
  9
$USERR3
 40
0.0
  9
$USERR4
 40
0.0
  9
$USERR5
 40
0.0
  9
$WORLDVIEW
 70
     1
  9
$SHADEDGE
 70
     3
  9
$SHADEDIF
 70
    70
  9
$TILEMODE
 70
     1
  9
$MAXACTVP
 70
    64
  9
$PINSBASE
 10
0.0
 20
0.0
 30
0.0
  9
$PLIMCHECK
 70
     0
  9
$PEXTMIN
 10
1.0000000000E+20
 20
1.0000000000E+20
 30
1.0000000000E+20
  9
$PEXTMAX
 10
-1.0000000000E+20
 20
-1.0000000000E+20
 30
-1.0000000000E+20
  9
$PLIMMIN
 10
0.0
 20
0.0
  9
$PLIMMAX
 10
420.0
 20
297.0
  9
$UNITMODE
 70
     0
  9
$VISRETAIN
 70
     1
  9
$PLINEGEN
 70
     0
  9
$PSLTSCALE
 70
     1
  9
$TREEDEPTH
 70
  3020
  9
$CMLSTYLE
  2
Standard
  9
$CMLJUST
 70
     0
  9
$CMLSCALE
 40
20.0
  9
$PROXYGRAPHICS
 70
     1
  9
$MEASUREMENT
 70
     1
  9
$CELWEIGHT
370
    -1
  9
$ENDCAPS
280
     0
  9
$JOINSTYLE
280
     0
  9
$LWDISPLAY
290
     1
  9
$INSUNITS
 70
     4
  9
$HYPERLINKBASE
  1

  9
$STYLESHEET
  1

  9
$XEDIT
290
     1
  9
$CEPSNTYPE
380
     0
  9
$PSTYLEMODE
290
     1
  9
$FINGERPRINTGUID
  2
{2ae3777b-bfeb-4557-bcc2-360b66564319}
  9
$VERSIONGUID
  2
{FAEB1C32-E019-11D5-929B-00C0DF256EC4}
  9
$EXTNAMES
290
     1
  9
$PSVPSCALE
 40
0.0
  9
$OLESTARTUP
290
     0
  0
ENDSEC
  0
SECTION
  2
CLASSES
  0
CLASS
  1
ACDBDICTIONARYWDFLT
  2
AcDbDictionaryWithDefault
  3
ObjectDBX Classes
 90
        0
280
     0
281
     0
  0
CLASS
  1
VISUALSTYLE
  2
AcDbVisualStyle
  3
ObjectDBX Classes
 90
     4095
280
     0
281
     0
  0
CLASS
  1
MATERIAL
  2
AcDbMaterial
  3
ObjectDBX Classes
 90
     1153
280
     0
281
     0
  0
CLASS
  1
SCALE
  2
AcDbScale
  3
ObjectDBX Classes
 90
     1153
280
     0
281
     0
  0
CLASS
  1
TABLESTYLE
  2
AcDbTableStyle
  3
ObjectDBX Classes
 90
     4095
280
     0
281
     0
  0
CLASS
  1
MLEADERSTYLE
  2
AcDbMLeaderStyle
  3
ACDB_MLEADERSTYLE_CLASS
 90
     4095
280
     0
281
     0
  0
CLASS
  1
SUN
  2
AcDbSun
  3
SCENEOE
 90
     1153
280
     0
281
     0
  0
CLASS
  1
ACDBPLACEHOLDER
  2
AcDbPlaceHolder
  3
ObjectDBX Classes
 90
        0
280
     0
281
     0
  0
CLASS
  1
LAYOUT
  2
AcDbLayout
  3
ObjectDBX Classes
 90
        0
280
     0
281
     0
  0
ENDSEC
  0
SECTION
  2
TABLES
  0
TABLE
  2
VPORT
  5
8
330
0
100
AcDbSymbolTable
 70
     1
  0
VPORT
  5
29
330
8
100
AcDbSymbolTableRecord
100
AcDbViewportTableRecord
  2
*Active
 70
     0
 10
0.0
 20
0.0
 11
1.0
 21
1.0
 12
139.7
 22
107.95
 13
0.0
 23
0.0
 14
10.0
 24
10.0
 15
10.0
 25
10.0
 16
0.0
 26
0.0
 36
1.0
 17
0.0
 27
0.0
 37
0.0
 40
215.9
 41
1.2941176471
 42
50.0
 43
0.0
 44
0.0
 50
0.0
 51
0.0
 71
     0
 72
  2000
 73
     1
 74
     3
 75
     0
 76
     0
 77
     0
 78
     0
281
     0
 65
     1
110
0.0
120
0.0
130
0.0
111
1.0
121
0.0
131
0.0
112
0.0
122
1.0
132
0.0
 79
     0
146
0.0
  0
ENDTAB
  0
TABLE
  2
LTYPE
  5
5
330
0
100
AcDbSymbolTable
 70
     6
  0
LTYPE
  5
14
330
5
100
AcDbSymbolTableRecord
100
AcDbLinetypeTableRecord
  2
ByBlock
 70
     0
  3

 72
    65
 73
     0
 40
0.0
  0
LTYPE
  5
15
330
5
100
AcDbSymbolTableRecord
100
AcDbLinetypeTableRecord
  2
ByLayer
 70
     0
  3

 72
    65
 73
     0
 40
0.0
  0
LTYPE
  5
16
330
5
100
AcDbSymbolTableRecord
100
AcDbLinetypeTableRecord
  2
Continuous
 70
     0
  3
Solid line
 72
    65
 73
     0
 40
0.0
  0
LTYPE
  5
6E
330
5
100
AcDbSymbolTableRecord
100
AcDbLinetypeTableRecord
  2
HIDDEN
 70
     0
  3
Hidden __ __ __ __ __ __ __ __ __ __ __ __ __ __
 72
    65
 73
     2
 40
1.905
 49
1.27
 74
     0
 49
-0.635
 74
     0
  0
LTYPE
  5
6F
330
5
100
AcDbSymbolTableRecord
100
AcDbLinetypeTableRecord
  2
PHANTOM
 70
     0
  3
Phantom ______  __  __  ______  __  __  ______
 72
    65
 73
     6
 40
12.7
 49
6.35
 74
     0
 49
-1.27
 74
     0
 49
1.27
 74
     0
 49
-1.27
 74
     0
 49
1.27
 74
     0
 49
-1.27
 74
     0
  0
LTYPE
  5
70
330
5
100
AcDbSymbolTableRecord
100
AcDbLinetypeTableRecord
  2
CENTER
 70
     0
  3
Center ____ _ ____ _ ____ _ ____ _ ____ _ ____
 72
    65
 73
     4
 40
10.16
 49
6.35
 74
     0
 49
-1.27
 74
     0
 49
1.27
 74
     0
 49
-1.27
 74
     0
  0
LTYPE
  5
71
330
5
100
AcDbSymbolTableRecord
100
AcDbLinetypeTableRecord
  2
CENTERX2
 70
     0
  3
Center (2x) ________  __  ________  __  _____
 72
    65
 73
     4
 40
20.32
 49
12.7
 74
     0
 49
-2.54
 74
     0
 49
2.54
 74
     0
 49
-2.54
 74
     0
  0
LTYPE
  5
72
330
5
100
AcDbSymbolTableRecord
100
AcDbLinetypeTableRecord
  2
DOT2
 70
     0
  3
Dot (.5x) ........................................
 72
    65
 73
     2
 40
0.635
 49
0.0
 74
     0
 49
-0.635
 74
     0
  0
ENDTAB
  0
TABLE
  2
LAYER
  5
2
330
0
100
AcDbSymbolTable
 70
    17
  0
LAYER
  5
10
330
2
100
AcDbSymbolTableRecord
100
AcDbLayerTableRecord
  2
0
 70
     0
 62
     7
  6
Continuous
370
    -3
390
F
  0
LAYER
  5
73
330
2
100
AcDbSymbolTableRecord
100
AcDbLayerTableRecord
  2
FORMAT
 70
     0
 62
     7
  6
Continuous
370
    -3
390
F
  0
LAYER
  5
74
330
2
100
AcDbSymbolTableRecord
100
AcDbLayerTableRecord
  2
YARDIMCI_GEOMETRI
 70
     0
 62
    -6
  6
Continuous
290
     0
370
    -3
390
F
  0
LAYER
  5
75
330
2
100
AcDbSymbolTableRecord
100
AcDbLayerTableRecord
  2
SAYFA_CERCEVESI
 70
     0
 62
     7
  6
Continuous
370
    25
390
F
  0
LAYER
  5
76
330
2
100
AcDbSymbolTableRecord
100
AcDbLayerTableRecord
  2
ANTET
 70
     0
 62
     7
  6
Continuous
370
    -3
390
F
  0
LAYER
  5
77
330
2
100
AcDbSymbolTableRecord
100
AcDbLayerTableRecord
  2
OLCU
 70
     0
 62
   150
  6
Continuous
370
    -3
390
F
  0
LAYER
  5
78
330
2
100
AcDbSymbolTableRecord
100
AcDbLayerTableRecord
  2
METIN
 70
     0
 62
    96
  6
Continuous
370
    -3
390
F
  0
LAYER
  5
79
330
2
100
AcDbSymbolTableRecord
100
AcDbLayerTableRecord
  2
BALON
 70
     0
 62
     5
  6
Continuous
370
    -3
390
F
  0
LAYER
  5
7A
330
2
100
AcDbSymbolTableRecord
100
AcDbLayerTableRecord
  2
VURGU
 70
     0
 62
     7
  6
Continuous
370
    -3
390
F
  0
LAYER
  5
7B
330
2
100
AcDbSymbolTableRecord
100
AcDbLayerTableRecord
  2
SILIK
 70
     0
 62
     7
  6
Continuous
370
    -3
390
F
  0
LAYER
  5
7C
330
2
100
AcDbSymbolTableRecord
100
AcDbLayerTableRecord
  2
MODEL
 70
     0
 62
     7
  6
Continuous
370
    -3
390
F
  0
LAYER
  5
7D
330
2
100
AcDbSymbolTableRecord
100
AcDbLayerTableRecord
  2
DETAYLANDıRMA
 70
     0
 62
   190
  6
Continuous
370
    -3
390
F
  0
LAYER
  5
7E
330
2
100
AcDbSymbolTableRecord
100
AcDbLayerTableRecord
  2
TOLERANS
 70
     0
 62
   230
  6
Continuous
370
    -3
390
F
  0
LAYER
  5
7F
330
2
100
AcDbSymbolTableRecord
100
AcDbLayerTableRecord
  2
MERKEZ_CIZGILERI
 70
     0
 62
    30
  6
Continuous
370
    -3
390
F
  0
LAYER
  5
80
330
2
100
AcDbSymbolTableRecord
100
AcDbLayerTableRecord
  2
KESIT-DETAY_CIZGILERI
 70
     0
 62
     7
  6
Continuous
370
    -3
390
F
  0
LAYER
  5
81
330
2
100
AcDbSymbolTableRecord
100
AcDbLayerTableRecord
  2
\U+041E\U+0421\U+0415\U+0412\U+042B\U+0415
 70
     0
 62
     7
  6
Continuous
370
    -3
390
F
  0
LAYER
  5
82
330
2
100
AcDbSymbolTableRecord
100
AcDbLayerTableRecord
  2
\U+0412\U+041E\U+0414\U+042F\U+041D\U+042B\U+0415_\U+0417\U+041D\U+0410\U+041A\U+0418
 70
     0
 62
    11
  6
Continuous
370
    -3
390
F
  0
ENDTAB
  0
TABLE
  2
STYLE
  5
3
330
0
100
AcDbSymbolTable
 70
     1
  0
STYLE
  5
11
330
3
100
AcDbSymbolTableRecord
100
AcDbTextStyleTableRecord
  2
Standard
 70
     0
 40
0.0
 41
1.0
 50
0.0
 71
     0
 42
3.5
  3
txt
  4

  0
ENDTAB
  0
TABLE
  2
VIEW
  5
6
330
0
100
AcDbSymbolTable
 70
     0
  0
ENDTAB
  0
TABLE
  2
UCS
  5
7
330
0
100
AcDbSymbolTable
 70
     0
  0
ENDTAB
  0
TABLE
  2
APPID
  5
9
330
0
100
AcDbSymbolTable
 70
     1
  0
APPID
  5
12
330
9
100
AcDbSymbolTableRecord
100
AcDbRegAppTableRecord
  2
ACAD
 70
     0
  0
ENDTAB
  0
TABLE
  2
DIMSTYLE
  5
A
330
0
100
AcDbSymbolTable
 70
     1
100
AcDbDimStyleTable
  0
DIMSTYLE
105
27
330
A
100
AcDbSymbolTableRecord
100
AcDbDimStyleTableRecord
  2
ISO-25
 70
     0
 41
2.5
 42
0.625
 43
3.75
 44
1.25
 73
     0
 74
     0
 77
     1
 78
     8
140
2.5
141
2.5
143
0.0393700787
147
0.625
171
     3
172
     1
178
     0
271
     2
272
     2
274
     3
278
    44
283
     0
284
     8
340
11
  0
ENDTAB
  0
TABLE
  2
BLOCK_RECORD
  5
1
330
0
100
AcDbSymbolTable
 70
     2
  0
BLOCK_RECORD
  5
1F
330
1
100
AcDbSymbolTableRecord
100
AcDbBlockTableRecord
  2
*Model_Space
340
22
  0
BLOCK_RECORD
  5
1B
330
1
100
AcDbSymbolTableRecord
100
AcDbBlockTableRecord
  2
*Paper_Space
340
1E
  0
BLOCK_RECORD
  5
23
330
1
100
AcDbSymbolTableRecord
100
AcDbBlockTableRecord
  2
*Paper_Space0
340
26
  0
BLOCK_RECORD
  5
92
330
1
100
AcDbSymbolTableRecord
100
AcDbBlockTableRecord
  2
SW_CENTERMARKSYMBOL_0
340
0
102
{BLKREFS
331
9D
102
}
  0
ENDTAB
  0
ENDSEC
  0
SECTION
  2
BLOCKS
  0
BLOCK
  5
20
330
1F
100
AcDbEntity
  8
0
100
AcDbBlockBegin
  2
*Model_Space
 70
     0
 10
0.0
 20
0.0
 30
0.0
  3
*Model_Space
  1

  0
ENDBLK
  5
21
330
1F
100
AcDbEntity
  8
0
100
AcDbBlockEnd
  0
BLOCK
  5
1C
330
1B
100
AcDbEntity
 67
     1
  8
0
100
AcDbBlockBegin
  2
*Paper_Space
 70
     0
 10
0.0
 20
0.0
 30
0.0
  3
*Paper_Space
  1

  0
ENDBLK
  5
1D
330
1B
100
AcDbEntity
 67
     1
  8
0
100
AcDbBlockEnd
  0
BLOCK
  5
24
330
23
100
AcDbEntity
  8
0
100
AcDbBlockBegin
  2
*Paper_Space0
 70
     0
 10
0.0
 20
0.0
 30
0.0
  3
*Paper_Space0
  1

  0
ENDBLK
  5
25
330
23
100
AcDbEntity
  8
0
100
AcDbBlockEnd
  0
BLOCK
  5
93
330
92
100
AcDbEntity
  8
0
100
AcDbBlockBegin
  2
SW_CENTERMARKSYMBOL_0
 70
     0
 10
0.0
 20
0.0
 30
0.0
  3
SW_CENTERMARKSYMBOL_0
  1

  0
LINE
  5
95
330
92
100
AcDbEntity
  8
FORMAT
 62
     0
100
AcDbLine
 10
0.0
 20
0.0
 30
0.0
 11
0.0
 21
2.5
 31
0.0
  0
LINE
  5
96
330
92
100
AcDbEntity
  8
FORMAT
 62
     0
100
AcDbLine
 10
0.0
 20
0.0
 30
0.0
 11
-2.5
 21
0.0
 31
0.0
  0
LINE
  5
97
330
92
100
AcDbEntity
  8
FORMAT
 62
     0
100
AcDbLine
 10
0.0
 20
0.0
 30
0.0
 11
0.0
 21
-2.5
 31
0.0
  0
LINE
  5
98
330
92
100
AcDbEntity
  8
FORMAT
 62
     0
100
AcDbLine
 10
0.0
 20
0.0
 30
0.0
 11
2.5
 21
0.0
 31
0.0
  0
LINE
  5
99
330
92
100
AcDbEntity
  8
FORMAT
 62
     0
100
AcDbLine
 10
0.0
 20
5.0
 30
0.0
 11
0.0
 21
34.0
 31
0.0
  0
LINE
  5
9A
330
92
100
AcDbEntity
  8
FORMAT
 62
     0
100
AcDbLine
 10
-5.0
 20
0.0
 30
0.0
 11
-34.0
 21
0.0
 31
0.0
  0
LINE
  5
9B
330
92
100
AcDbEntity
  8
FORMAT
 62
     0
100
AcDbLine
 10
0.0
 20
-5.0
 30
0.0
 11
0.0
 21
-34.0
 31
0.0
  0
LINE
  5
9C
330
92
100
AcDbEntity
  8
FORMAT
 62
     0
100
AcDbLine
 10
5.0
 20
0.0
 30
0.0
 11
34.0
 21
0.0
 31
0.0
  0
ENDBLK
  5
94
330
92
100
AcDbEntity
  8
0
100
AcDbBlockEnd
  0
ENDSEC
  0
SECTION
  2
ENTITIES
  0
CIRCLE
  5
83
330
1F
100
AcDbEntity
  8
0
  6
Continuous
 62
     7
370
    25
100
AcDbCircle
 10
139.8323425481
 20
108.7440552885
 30
0.0
 40
31.50000000000001
  0
CIRCLE
  5
84
330
1F
100
AcDbEntity
  8
0
  6
Continuous
 62
     7
370
    25
100
AcDbCircle
 10
139.8323425481
 20
108.7440552885
 30
0.0
 40
25.7
  0
CIRCLE
  5
85
330
1F
100
AcDbEntity
  8
0
  6
Continuous
 62
     7
370
    25
100
AcDbCircle
 10
139.8323425481
 20
108.7440552885
 30
0.0
 40
21.50000000000001
  0
ARC
  5
86
330
1F
100
AcDbEntity
  8
0
  6
Continuous
 62
     7
370
    25
100
AcDbCircle
 10
139.8323425481
 20
108.7440552885
 30
0.0
 40
45.0
100
AcDbArc
 50
267.2660444507
 51
272.7339555493
  0
LINE
  5
87
330
1F
100
AcDbEntity
  8
0
  6
Continuous
 62
     7
370
    25
100
AcDbLine
 10
137.6859136194
 20
63.795275073
 30
0.0
 11
101.9787714767
 21
84.4108032011
 31
0.0
  0
ARC
  5
88
330
1F
100
AcDbEntity
  8
0
  6
Continuous
 62
     7
370
    25
100
AcDbCircle
 10
139.8323425481
 20
108.7440552885
 30
0.0
 40
45.00000000000002
100
AcDbArc
 50
207.2660444507
 51
212.7339555493
  0
LINE
  5
89
330
1F
100
AcDbEntity
  8
0
  6
Continuous
 62
     7
370
    25
100
AcDbLine
 10
99.8323425481
 20
88.1285271604
 30
0.0
 11
99.8323425481
 21
129.3595834165
 31
0.0
  0
ARC
  5
8A
330
1F
100
AcDbEntity
  8
0
  6
Continuous
 62
     7
370
    25
100
AcDbCircle
 10
139.8323425481
 20
108.7440552885
 30
0.0
 40
45.00000000000001
100
AcDbArc
 50
147.2660444507
 51
152.7339555493
  0
LINE
  5
8B
330
1F
100
AcDbEntity
  8
0
  6
Continuous
 62
     7
370
    25
100
AcDbLine
 10
101.9787714767
 20
133.0773073758
 30
0.0
 11
137.6859136194
 21
153.6928355039
 31
0.0
  0
ARC
  5
8C
330
1F
100
AcDbEntity
  8
0
  6
Continuous
 62
     7
370
    25
100
AcDbCircle
 10
139.8323425481
 20
108.7440552885
 30
0.0
 40
44.99999999999999
100
AcDbArc
 50
87.2660444507
 51
92.7339555493
  0
LINE
  5
8D
330
1F
100
AcDbEntity
  8
0
  6
Continuous
 62
     7
370
    25
100
AcDbLine
 10
141.9787714767
 20
153.6928355039
 30
0.0
 11
177.6859136194
 21
133.0773073758
 31
0.0
  0
LINE
  5
8E
330
1F
100
AcDbEntity
  8
0
  6
Continuous
 62
     7
370
    25
100
AcDbLine
 10
179.8323425481
 20
129.3595834165
 30
0.0
 11
179.8323425481
 21
88.1285271604
 31
0.0
  0
LINE
  5
8F
330
1F
100
AcDbEntity
  8
0
  6
Continuous
 62
     7
370
    25
100
AcDbLine
 10
177.6859136194
 20
84.4108032011
 30
0.0
 11
141.9787714767
 21
63.795275073
 31
0.0
  0
ARC
  5
90
330
1F
100
AcDbEntity
  8
0
  6
Continuous
 62
     7
370
    25
100
AcDbCircle
 10
139.8323425481
 20
108.7440552885
 30
0.0
 40
45.00000000000001
100
AcDbArc
 50
27.2660444507
 51
32.7339555493
  0
ARC
  5
91
330
1F
100
AcDbEntity
  8
0
  6
Continuous
 62
     7
370
    25
100
AcDbCircle
 10
139.8323425481
 20
108.7440552885
 30
0.0
 40
45.00000000000001
100
AcDbArc
 50
327.2660444507
 51
332.7339555493
  0
INSERT
  5
9D
330
1F
100
AcDbEntity
  8
FORMAT
 62
     7
100
AcDbBlockReference
  2
SW_CENTERMARKSYMBOL_0
 10
139.8323425481
 20
108.7440552885
 30
0.0
  0
LINE
  5
9E
330
1F
100
AcDbEntity
  8
0
  6
Continuous
 62
     7
370
    25
100
AcDbLine
 10
171.3323425481
 20
244.5154019761
 30
0.0
 11
171.3323425481
 21
306.5154019761
 31
0.0
  0
LINE
  5
9F
330
1F
100
AcDbEntity
  8
0
  6
Continuous
 62
     7
370
    25
100
AcDbLine
 10
108.3323425481
 20
306.5154019761
 30
0.0
 11
108.3323425481
 21
244.5154019761
 31
0.0
  0
LINE
  5
A0
330
1F
100
AcDbEntity
  8
0
  6
Continuous
 62
     7
370
    25
100
AcDbLine
 10
169.6323425481
 20
200.5154019761
 30
0.0
 11
169.6323425481
 21
200.7154019761
 31
0.0
  0
LINE
  5
A1
330
1F
100
AcDbEntity
  8
0
  6
Continuous
 62
     7
370
    25
100
AcDbLine
 10
110.0323425481
 20
200.7154019761
 30
0.0
 11
110.0323425481
 21
200.5154019761
 31
0.0
  0
LINE
  5
A2
330
1F
100
AcDbEntity
  8
0
  6
Continuous
 62
     7
370
    25
100
AcDbLine
 10
169.6323425481
 20
200.7154019761
 30
0.0
 11
167.9002917405
 21
201.7154019761
 31
0.0
  0
LINE
  5
A3
330
1F
100
AcDbEntity
  8
0
  6
Continuous
 62
     7
370
    25
100
AcDbLine
 10
111.7643933556
 20
201.7154019761
 30
0.0
 11
110.0323425481
 21
200.7154019761
 31
0.0
  0
LINE
  5
A4
330
1F
100
AcDbEntity
  8
0
  6
Continuous
 62
     7
370
    25
100
AcDbLine
 10
110.0323425481
 20
202.7154019761
 30
0.0
 11
111.7643933556
 21
201.7154019761
 31
0.0
  0
LINE
  5
A5
330
1F
100
AcDbEntity
  8
0
  6
Continuous
 62
     7
370
    25
100
AcDbLine
 10
167.9002917405
 20
201.7154019761
 30
0.0
 11
169.6323425481
 21
202.7154019761
 31
0.0
  0
LINE
  5
A6
330
1F
100
AcDbEntity
  8
0
  6
Continuous
 62
     7
370
    25
100
AcDbLine
 10
169.6323425481
 20
202.7154019761
 30
0.0
 11
167.9002917405
 21
203.7154019761
 31
0.0
  0
LINE
  5
A7
330
1F
100
AcDbEntity
  8
0
  6
Continuous
 62
     7
370
    25
100
AcDbLine
 10
111.7643933556
 20
203.7154019761
 30
0.0
 11
110.0323425481
 21
202.7154019761
 31
0.0
  0
LINE
  5
A8
330
1F
100
AcDbEntity
  8
0
  6
Continuous
 62
     7
370
    25
100
AcDbLine
 10
110.0323425481
 20
204.7154019761
 30
0.0
 11
111.7643933556
 21
203.7154019761
 31
0.0
  0
LINE
  5
A9
330
1F
100
AcDbEntity
  8
0
  6
Continuous
 62
     7
370
    25
100
AcDbLine
 10
167.9002917405
 20
203.7154019761
 30
0.0
 11
169.6323425481
 21
204.7154019761
 31
0.0
  0
LINE
  5
AA
330
1F
100
AcDbEntity
  8
0
  6
Continuous
 62
     7
370
    25
100
AcDbLine
 10
169.6323425481
 20
204.7154019761
 30
0.0
 11
167.9002917405
 21
205.7154019761
 31
0.0
  0
LINE
  5
AB
330
1F
100
AcDbEntity
  8
0
  6
Continuous
 62
     7
370
    25
100
AcDbLine
 10
111.7643933556
 20
205.7154019761
 30
0.0
 11
110.0323425481
 21
204.7154019761
 31
0.0
  0
LINE
  5
AC
330
1F
100
AcDbEntity
  8
0
  6
Continuous
 62
     7
370
    25
100
AcDbLine
 10
110.0323425481
 20
206.7154019761
 30
0.0
 11
111.7643933556
 21
205.7154019761
 31
0.0
  0
LINE
  5
AD
330
1F
100
AcDbEntity
  8
0
  6
Continuous
 62
     7
370
    25
100
AcDbLine
 10
167.9002917405
 20
205.7154019761
 30
0.0
 11
169.6323425481
 21
206.7154019761
 31
0.0
  0
LINE
  5
AE
330
1F
100
AcDbEntity
  8
0
  6
Continuous
 62
     7
370
    25
100
AcDbLine
 10
169.6323425481
 20
206.7154019761
 30
0.0
 11
169.6323425481
 21
227.5154019761
 31
0.0
  0
LINE
  5
AF
330
1F
100
AcDbEntity
  8
0
  6
Continuous
 62
     7
370
    25
100
AcDbLine
 10
110.0323425481
 20
227.5154019761
 30
0.0
 11
110.0323425481
 21
206.7154019761
 31
0.0
  0
LINE
  5
B0
330
1F
100
AcDbEntity
  8
0
  6
Continuous
 62
     7
370
    25
100
AcDbLine
 10
137.6859136194
 20
227.5154019761
 30
0.0
 11
137.6859136194
 21
244.5154019761
 31
0.0
  0
LINE
  5
B1
330
1F
100
AcDbEntity
  8
0
  6
Continuous
 62
     7
370
    25
100
AcDbLine
 10
141.9787714767
 20
244.5154019761
 30
0.0
 11
137.6859136194
 21
244.5154019761
 31
0.0
  0
LINE
  5
B2
330
1F
100
AcDbEntity
  8
0
  6
Continuous
 62
     7
370
    25
100
AcDbLine
 10
141.9787714767
 20
244.5154019761
 30
0.0
 11
141.9787714767
 21
227.5154019761
 31
0.0
  0
LINE
  5
B3
330
1F
100
AcDbEntity
  8
0
  6
Continuous
 62
     7
370
    25
100
AcDbLine
 10
141.9787714767
 20
227.5154019761
 30
0.0
 11
137.6859136194
 21
227.5154019761
 31
0.0
  0
LINE
  5
B4
330
1F
100
AcDbEntity
  8
0
  6
Continuous
 62
     7
370
    25
100
AcDbLine
 10
101.9787714767
 20
244.5154019761
 30
0.0
 11
101.9787714767
 21
227.5154019761
 31
0.0
  0
LINE
  5
B5
330
1F
100
AcDbEntity
  8
0
  6
Continuous
 62
     7
370
    25
100
AcDbLine
 10
137.6859136194
 20
244.5154019761
 30
0.0
 11
101.9787714767
 21
244.5154019761
 31
0.0
  0
LINE
  5
B6
330
1F
100
AcDbEntity
  8
0
  6
Continuous
 62
     7
370
    25
100
AcDbLine
 10
101.9787714767
 20
227.5154019761
 30
0.0
 11
137.6859136194
 21
227.5154019761
 31
0.0
  0
LINE
  5
B7
330
1F
100
AcDbEntity
  8
0
  6
Continuous
 62
     7
370
    25
100
AcDbLine
 10
177.6859136194
 20
227.5154019761
 30
0.0
 11
177.6859136194
 21
244.5154019761
 31
0.0
  0
LINE
  5
B8
330
1F
100
AcDbEntity
  8
0
  6
Continuous
 62
     7
370
    25
100
AcDbLine
 10
177.6859136194
 20
244.5154019761
 30
0.0
 11
141.9787714767
 21
244.5154019761
 31
0.0
  0
LINE
  5
B9
330
1F
100
AcDbEntity
  8
0
  6
Continuous
 62
     7
370
    25
100
AcDbLine
 10
141.9787714767
 20
227.5154019761
 30
0.0
 11
177.6859136194
 21
227.5154019761
 31
0.0
  0
LINE
  5
BA
330
1F
100
AcDbEntity
  8
0
  6
Continuous
 62
     7
370
    25
100
AcDbLine
 10
171.3323425481
 20
306.5154019761
 30
0.0
 11
108.3323425481
 21
306.5154019761
 31
0.0
  0
LINE
  5
BB
330
1F
100
AcDbEntity
  8
0
  6
Continuous
 62
     7
370
    25
100
AcDbLine
 10
169.6323425481
 20
200.7154019761
 30
0.0
 11
110.0323425481
 21
200.7154019761
 31
0.0
  0
LINE
  5
BC
330
1F
100
AcDbEntity
  8
0
  6
Continuous
 62
     7
370
    25
100
AcDbLine
 10
169.6323425481
 20
200.5154019761
 30
0.0
 11
110.0323425481
 21
200.5154019761
 31
0.0
  0
LINE
  5
BD
330
1F
100
AcDbEntity
  8
0
  6
Continuous
 62
     7
370
    25
100
AcDbLine
 10
167.9002917405
 20
201.7154019761
 30
0.0
 11
111.7643933556
 21
201.7154019761
 31
0.0
  0
LINE
  5
BE
330
1F
100
AcDbEntity
  8
0
  6
Continuous
 62
     7
370
    25
100
AcDbLine
 10
169.6323425481
 20
202.7154019761
 30
0.0
 11
110.0323425481
 21
202.7154019761
 31
0.0
  0
LINE
  5
BF
330
1F
100
AcDbEntity
  8
0
  6
Continuous
 62
     7
370
    25
100
AcDbLine
 10
167.9002917405
 20
203.7154019761
 30
0.0
 11
111.7643933556
 21
203.7154019761
 31
0.0
  0
LINE
  5
C0
330
1F
100
AcDbEntity
  8
0
  6
Continuous
 62
     7
370
    25
100
AcDbLine
 10
169.6323425481
 20
204.7154019761
 30
0.0
 11
110.0323425481
 21
204.7154019761
 31
0.0
  0
LINE
  5
C1
330
1F
100
AcDbEntity
  8
0
  6
Continuous
 62
     7
370
    25
100
AcDbLine
 10
167.9002917405
 20
205.7154019761
 30
0.0
 11
111.7643933556
 21
205.7154019761
 31
0.0
  0
LINE
  5
C2
330
1F
100
AcDbEntity
  8
0
  6
Continuous
 62
     7
370
    25
100
AcDbLine
 10
169.6323425481
 20
206.7154019761
 30
0.0
 11
110.0323425481
 21
206.7154019761
 31
0.0
  0
LINE
  5
C3
330
1F
100
AcDbEntity
  8
0
  6
Continuous
 62
     7
370
    25
100
AcDbLine
 10
179.8323425481
 20
244.5154019761
 30
0.0
 11
179.8323425481
 21
227.5154019761
 31
0.0
  0
LINE
  5
C4
330
1F
100
AcDbEntity
  8
0
  6
Continuous
 62
     7
370
    25
100
AcDbLine
 10
179.8323425481
 20
244.5154019761
 30
0.0
 11
177.6859136194
 21
244.5154019761
 31
0.0
  0
LINE
  5
C5
330
1F
100
AcDbEntity
  8
0
  6
Continuous
 62
     7
370
    25
100
AcDbLine
 10
179.8323425481
 20
227.5154019761
 30
0.0
 11
177.6859136194
 21
227.5154019761
 31
0.0
  0
LINE
  5
C6
330
1F
100
AcDbEntity
  8
0
  6
Continuous
 62
     7
370
    25
100
AcDbLine
 10
99.8323425481
 20
227.5154019761
 30
0.0
 11
99.8323425481
 21
244.5154019761
 31
0.0
  0
LINE
  5
C7
330
1F
100
AcDbEntity
  8
0
  6
Continuous
 62
     7
370
    25
100
AcDbLine
 10
101.9787714767
 20
244.5154019761
 30
0.0
 11
99.8323425481
 21
244.5154019761
 31
0.0
  0
LINE
  5
C8
330
1F
100
AcDbEntity
  8
0
  6
Continuous
 62
     7
370
    25
100
AcDbLine
 10
101.9787714767
 20
227.5154019761
 30
0.0
 11
99.8323425481
 21
227.5154019761
 31
0.0
  0
LINE
  5
C9
330
1F
100
AcDbEntity
  8
0
  6
Continuous
 62
     7
370
    25
100
AcDbLine
 10
269.0631408108
 20
77.2440552885
 30
0.0
 11
331.0631408108
 21
77.2440552885
 31
0.0
  0
LINE
  5
CA
330
1F
100
AcDbEntity
  8
0
  6
Continuous
 62
     7
370
    25
100
AcDbLine
 10
331.0631408108
 20
140.2440552885
 30
0.0
 11
269.0631408108
 21
140.2440552885
 31
0.0
  0
LINE
  5
CB
330
1F
100
AcDbEntity
  8
0
  6
Continuous
 62
     7
370
    25
100
AcDbLine
 10
225.2631408108
 20
78.9440552885
 30
0.0
 11
226.2631408108
 21
80.676106096
 31
0.0
  0
LINE
  5
CC
330
1F
100
AcDbEntity
  8
0
  6
Continuous
 62
     7
370
    25
100
AcDbLine
 10
226.2631408108
 20
136.8120044809
 30
0.0
 11
225.2631408108
 21
138.5440552885
 31
0.0
  0
LINE
  5
CD
330
1F
100
AcDbEntity
  8
0
  6
Continuous
 62
     7
370
    25
100
AcDbLine
 10
225.0631408108
 20
78.9440552885
 30
0.0
 11
225.2631408108
 21
78.9440552885
 31
0.0
  0
LINE
  5
CE
330
1F
100
AcDbEntity
  8
0
  6
Continuous
 62
     7
370
    25
100
AcDbLine
 10
225.2631408108
 20
138.5440552885
 30
0.0
 11
225.0631408108
 21
138.5440552885
 31
0.0
  0
LINE
  5
CF
330
1F
100
AcDbEntity
  8
0
  6
Continuous
 62
     7
370
    25
100
AcDbLine
 10
227.2631408108
 20
138.5440552885
 30
0.0
 11
226.2631408108
 21
136.8120044809
 31
0.0
  0
LINE
  5
D0
330
1F
100
AcDbEntity
  8
0
  6
Continuous
 62
     7
370
    25
100
AcDbLine
 10
226.2631408108
 20
80.676106096
 30
0.0
 11
227.2631408108
 21
78.9440552885
 31
0.0
  0
LINE
  5
D1
330
1F
100
AcDbEntity
  8
0
  6
Continuous
 62
     7
370
    25
100
AcDbLine
 10
227.2631408108
 20
78.9440552885
 30
0.0
 11
228.2631408108
 21
80.676106096
 31
0.0
  0
LINE
  5
D2
330
1F
100
AcDbEntity
  8
0
  6
Continuous
 62
     7
370
    25
100
AcDbLine
 10
228.2631408108
 20
136.8120044809
 30
0.0
 11
227.2631408108
 21
138.5440552885
 31
0.0
  0
LINE
  5
D3
330
1F
100
AcDbEntity
  8
0
  6
Continuous
 62
     7
370
    25
100
AcDbLine
 10
229.2631408108
 20
138.5440552885
 30
0.0
 11
228.2631408108
 21
136.8120044809
 31
0.0
  0
LINE
  5
D4
330
1F
100
AcDbEntity
  8
0
  6
Continuous
 62
     7
370
    25
100
AcDbLine
 10
228.2631408108
 20
80.676106096
 30
0.0
 11
229.2631408108
 21
78.9440552885
 31
0.0
  0
LINE
  5
D5
330
1F
100
AcDbEntity
  8
0
  6
Continuous
 62
     7
370
    25
100
AcDbLine
 10
229.2631408108
 20
78.9440552885
 30
0.0
 11
230.2631408108
 21
80.676106096
 31
0.0
  0
LINE
  5
D6
330
1F
100
AcDbEntity
  8
0
  6
Continuous
 62
     7
370
    25
100
AcDbLine
 10
230.2631408108
 20
136.8120044809
 30
0.0
 11
229.2631408108
 21
138.5440552885
 31
0.0
  0
LINE
  5
D7
330
1F
100
AcDbEntity
  8
0
  6
Continuous
 62
     7
370
    25
100
AcDbLine
 10
231.2631408108
 20
138.5440552885
 30
0.0
 11
230.2631408108
 21
136.8120044809
 31
0.0
  0
LINE
  5
D8
330
1F
100
AcDbEntity
  8
0
  6
Continuous
 62
     7
370
    25
100
AcDbLine
 10
230.2631408108
 20
80.676106096
 30
0.0
 11
231.2631408108
 21
78.9440552885
 31
0.0
  0
LINE
  5
D9
330
1F
100
AcDbEntity
  8
0
  6
Continuous
 62
     7
370
    25
100
AcDbLine
 10
231.2631408108
 20
78.9440552885
 30
0.0
 11
252.0631408108
 21
78.9440552885
 31
0.0
  0
LINE
  5
DA
330
1F
100
AcDbEntity
  8
0
  6
Continuous
 62
     7
370
    25
100
AcDbLine
 10
252.0631408108
 20
138.5440552885
 30
0.0
 11
231.2631408108
 21
138.5440552885
 31
0.0
  0
LINE
  5
DB
330
1F
100
AcDbEntity
  8
0
  6
Continuous
 62
     7
370
    25
100
AcDbLine
 10
269.0631408108
 20
153.7440552885
 30
0.0
 11
252.0631408108
 21
153.7440552885
 31
0.0
  0
LINE
  5
DC
330
1F
100
AcDbEntity
  8
0
  6
Continuous
 62
     7
370
    25
100
AcDbLine
 10
252.0631408108
 20
63.7440552885
 30
0.0
 11
269.0631408108
 21
63.7440552885
 31
0.0
  0
LINE
  5
DD
330
1F
100
AcDbEntity
  8
0
  6
Continuous
 62
     7
370
    25
100
AcDbLine
 10
269.0631408108
 20
129.3595834165
 30
0.0
 11
252.0631408108
 21
129.3595834165
 31
0.0
  0
LINE
  5
DE
330
1F
100
AcDbEntity
  8
0
  6
Continuous
 62
     7
370
    25
100
AcDbLine
 10
269.0631408108
 20
88.1285271604
 30
0.0
 11
269.0631408108
 21
129.3595834165
 31
0.0
  0
LINE
  5
DF
330
1F
100
AcDbEntity
  8
0
  6
Continuous
 62
     7
370
    25
100
AcDbLine
 10
252.0631408108
 20
88.1285271604
 30
0.0
 11
269.0631408108
 21
88.1285271604
 31
0.0
  0
LINE
  5
E0
330
1F
100
AcDbEntity
  8
0
  6
Continuous
 62
     7
370
    25
100
AcDbLine
 10
252.0631408108
 20
129.3595834165
 30
0.0
 11
252.0631408108
 21
88.1285271604
 31
0.0
  0
LINE
  5
E1
330
1F
100
AcDbEntity
  8
0
  6
Continuous
 62
     7
370
    25
100
AcDbLine
 10
269.0631408108
 20
84.4108032011
 30
0.0
 11
269.0631408108
 21
88.1285271604
 31
0.0
  0
LINE
  5
E2
330
1F
100
AcDbEntity
  8
0
  6
Continuous
 62
     7
370
    25
100
AcDbLine
 10
269.0631408108
 20
84.4108032011
 30
0.0
 11
252.0631408108
 21
84.4108032011
 31
0.0
  0
LINE
  5
E3
330
1F
100
AcDbEntity
  8
0
  6
Continuous
 62
     7
370
    25
100
AcDbLine
 10
252.0631408108
 20
84.4108032011
 30
0.0
 11
252.0631408108
 21
88.1285271604
 31
0.0
  0
LINE
  5
E4
330
1F
100
AcDbEntity
  8
0
  6
Continuous
 62
     7
370
    25
100
AcDbLine
 10
269.0631408108
 20
129.3595834165
 30
0.0
 11
269.0631408108
 21
133.0773073758
 31
0.0
  0
LINE
  5
E5
330
1F
100
AcDbEntity
  8
0
  6
Continuous
 62
     7
370
    25
100
AcDbLine
 10
252.0631408108
 20
133.0773073758
 30
0.0
 11
269.0631408108
 21
133.0773073758
 31
0.0
  0
LINE
  5
E6
330
1F
100
AcDbEntity
  8
0
  6
Continuous
 62
     7
370
    25
100
AcDbLine
 10
252.0631408108
 20
129.3595834165
 30
0.0
 11
252.0631408108
 21
133.0773073758
 31
0.0
  0
LINE
  5
E7
330
1F
100
AcDbEntity
  8
0
  6
Continuous
 62
     7
370
    25
100
AcDbLine
 10
252.0631408108
 20
63.795275073
 30
0.0
 11
269.0631408108
 21
63.795275073
 31
0.0
  0
LINE
  5
E8
330
1F
100
AcDbEntity
  8
0
  6
Continuous
 62
     7
370
    25
100
AcDbLine
 10
269.0631408108
 20
63.795275073
 30
0.0
 11
269.0631408108
 21
84.4108032011
 31
0.0
  0
LINE
  5
E9
330
1F
100
AcDbEntity
  8
0
  6
Continuous
 62
     7
370
    25
100
AcDbLine
 10
252.0631408108
 20
84.4108032011
 30
0.0
 11
252.0631408108
 21
63.795275073
 31
0.0
  0
LINE
  5
EA
330
1F
100
AcDbEntity
  8
0
  6
Continuous
 62
     7
370
    25
100
AcDbLine
 10
269.0631408108
 20
153.6928355039
 30
0.0
 11
252.0631408108
 21
153.6928355039
 31
0.0
  0
LINE
  5
EB
330
1F
100
AcDbEntity
  8
0
  6
Continuous
 62
     7
370
    25
100
AcDbLine
 10
269.0631408108
 20
133.0773073758
 30
0.0
 11
269.0631408108
 21
153.6928355039
 31
0.0
  0
LINE
  5
EC
330
1F
100
AcDbEntity
  8
0
  6
Continuous
 62
     7
370
    25
100
AcDbLine
 10
252.0631408108
 20
153.6928355039
 30
0.0
 11
252.0631408108
 21
133.0773073758
 31
0.0
  0
LINE
  5
ED
330
1F
100
AcDbEntity
  8
0
  6
Continuous
 62
     7
370
    25
100
AcDbLine
 10
331.0631408108
 20
108.7440552885
 30
0.0
 11
331.0631408108
 21
140.2440552885
 31
0.0
  0
LINE
  5
EE
330
1F
100
AcDbEntity
  8
0
  6
Continuous
 62
     7
370
    25
100
AcDbLine
 10
331.0631408108
 20
77.2440552885
 30
0.0
 11
331.0631408108
 21
108.7440552885
 31
0.0
  0
LINE
  5
EF
330
1F
100
AcDbEntity
  8
0
  6
Continuous
 62
     7
370
    25
100
AcDbLine
 10
226.2631408108
 20
108.7440552885
 30
0.0
 11
226.2631408108
 21
136.8120044809
 31
0.0
  0
LINE
  5
F0
330
1F
100
AcDbEntity
  8
0
  6
Continuous
 62
     7
370
    25
100
AcDbLine
 10
226.2631408108
 20
80.676106096
 30
0.0
 11
226.2631408108
 21
108.7440552885
 31
0.0
  0
LINE
  5
F1
330
1F
100
AcDbEntity
  8
0
  6
Continuous
 62
     7
370
    25
100
AcDbLine
 10
225.2631408108
 20
108.7440552885
 30
0.0
 11
225.2631408108
 21
138.5440552885
 31
0.0
  0
LINE
  5
F2
330
1F
100
AcDbEntity
  8
0
  6
Continuous
 62
     7
370
    25
100
AcDbLine
 10
225.2631408108
 20
78.9440552885
 30
0.0
 11
225.2631408108
 21
108.7440552885
 31
0.0
  0
LINE
  5
F3
330
1F
100
AcDbEntity
  8
0
  6
Continuous
 62
     7
370
    25
100
AcDbLine
 10
225.0631408108
 20
108.7440552885
 30
0.0
 11
225.0631408108
 21
138.5440552885
 31
0.0
  0
LINE
  5
F4
330
1F
100
AcDbEntity
  8
0
  6
Continuous
 62
     7
370
    25
100
AcDbLine
 10
225.0631408108
 20
78.9440552885
 30
0.0
 11
225.0631408108
 21
108.7440552885
 31
0.0
  0
LINE
  5
F5
330
1F
100
AcDbEntity
  8
0
  6
Continuous
 62
     7
370
    25
100
AcDbLine
 10
227.2631408108
 20
108.7440552885
 30
0.0
 11
227.2631408108
 21
138.5440552885
 31
0.0
  0
LINE
  5
F6
330
1F
100
AcDbEntity
  8
0
  6
Continuous
 62
     7
370
    25
100
AcDbLine
 10
227.2631408108
 20
78.9440552885
 30
0.0
 11
227.2631408108
 21
108.7440552885
 31
0.0
  0
LINE
  5
F7
330
1F
100
AcDbEntity
  8
0
  6
Continuous
 62
     7
370
    25
100
AcDbLine
 10
228.2631408108
 20
108.7440552885
 30
0.0
 11
228.2631408108
 21
136.8120044809
 31
0.0
  0
LINE
  5
F8
330
1F
100
AcDbEntity
  8
0
  6
Continuous
 62
     7
370
    25
100
AcDbLine
 10
228.2631408108
 20
80.676106096
 30
0.0
 11
228.2631408108
 21
108.7440552885
 31
0.0
  0
LINE
  5
F9
330
1F
100
AcDbEntity
  8
0
  6
Continuous
 62
     7
370
    25
100
AcDbLine
 10
229.2631408108
 20
108.7440552885
 30
0.0
 11
229.2631408108
 21
138.5440552885
 31
0.0
  0
LINE
  5
FA
330
1F
100
AcDbEntity
  8
0
  6
Continuous
 62
     7
370
    25
100
AcDbLine
 10
229.2631408108
 20
78.9440552885
 30
0.0
 11
229.2631408108
 21
108.7440552885
 31
0.0
  0
LINE
  5
FB
330
1F
100
AcDbEntity
  8
0
  6
Continuous
 62
     7
370
    25
100
AcDbLine
 10
230.2631408108
 20
108.7440552885
 30
0.0
 11
230.2631408108
 21
136.8120044809
 31
0.0
  0
LINE
  5
FC
330
1F
100
AcDbEntity
  8
0
  6
Continuous
 62
     7
370
    25
100
AcDbLine
 10
230.2631408108
 20
80.676106096
 30
0.0
 11
230.2631408108
 21
108.7440552885
 31
0.0
  0
LINE
  5
FD
330
1F
100
AcDbEntity
  8
0
  6
Continuous
 62
     7
370
    25
100
AcDbLine
 10
231.2631408108
 20
108.7440552885
 30
0.0
 11
231.2631408108
 21
138.5440552885
 31
0.0
  0
LINE
  5
FE
330
1F
100
AcDbEntity
  8
0
  6
Continuous
 62
     7
370
    25
100
AcDbLine
 10
231.2631408108
 20
78.9440552885
 30
0.0
 11
231.2631408108
 21
108.7440552885
 31
0.0
  0
LINE
  5
FF
330
1F
100
AcDbEntity
  8
0
  6
Continuous
 62
     7
370
    25
100
AcDbLine
 10
269.0631408108
 20
153.6928355039
 30
0.0
 11
269.0631408108
 21
153.7440552885
 31
0.0
  0
LINE
  5
100
330
1F
100
AcDbEntity
  8
0
  6
Continuous
 62
     7
370
    25
100
AcDbLine
 10
252.0631408108
 20
153.6928355039
 30
0.0
 11
252.0631408108
 21
153.7440552885
 31
0.0
  0
LINE
  5
101
330
1F
100
AcDbEntity
  8
0
  6
Continuous
 62
     7
370
    25
100
AcDbLine
 10
269.0631408108
 20
63.7440552885
 30
0.0
 11
269.0631408108
 21
63.795275073
 31
0.0
  0
LINE
  5
102
330
1F
100
AcDbEntity
  8
0
  6
Continuous
 62
     7
370
    25
100
AcDbLine
 10
252.0631408108
 20
63.7440552885
 30
0.0
 11
252.0631408108
 21
63.795275073
 31
0.0
  0
LINE
  5
103
330
1F
100
AcDbEntity
  8
0
  6
Continuous
 62
     7
370
    25
100
AcDbLine
 10
10.6424806258
 20
140.2440552885
 30
0.0
 11
-51.3575193742
 21
140.2440552885
 31
0.0
  0
LINE
  5
104
330
1F
100
AcDbEntity
  8
0
  6
Continuous
 62
     7
370
    25
100
AcDbLine
 10
-51.3575193742
 20
77.2440552885
 30
0.0
 11
10.6424806258
 21
77.2440552885
 31
0.0
  0
LINE
  5
105
330
1F
100
AcDbEntity
  8
0
  6
Continuous
 62
     7
370
    25
100
AcDbLine
 10
54.6424806258
 20
138.5440552885
 30
0.0
 11
54.4424806258
 21
138.5440552885
 31
0.0
  0
LINE
  5
106
330
1F
100
AcDbEntity
  8
0
  6
Continuous
 62
     7
370
    25
100
AcDbLine
 10
54.4424806258
 20
78.9440552885
 30
0.0
 11
54.6424806258
 21
78.9440552885
 31
0.0
  0
LINE
  5
107
330
1F
100
AcDbEntity
  8
0
  6
Continuous
 62
     7
370
    25
100
AcDbLine
 10
54.4424806258
 20
138.5440552885
 30
0.0
 11
53.4424806258
 21
136.8120044809
 31
0.0
  0
LINE
  5
108
330
1F
100
AcDbEntity
  8
0
  6
Continuous
 62
     7
370
    25
100
AcDbLine
 10
53.4424806258
 20
80.676106096
 30
0.0
 11
54.4424806258
 21
78.9440552885
 31
0.0
  0
LINE
  5
109
330
1F
100
AcDbEntity
  8
0
  6
Continuous
 62
     7
370
    25
100
AcDbLine
 10
52.4424806258
 20
78.9440552885
 30
0.0
 11
53.4424806258
 21
80.676106096
 31
0.0
  0
LINE
  5
10A
330
1F
100
AcDbEntity
  8
0
  6
Continuous
 62
     7
370
    25
100
AcDbLine
 10
53.4424806258
 20
136.8120044809
 30
0.0
 11
52.4424806258
 21
138.5440552885
 31
0.0
  0
LINE
  5
10B
330
1F
100
AcDbEntity
  8
0
  6
Continuous
 62
     7
370
    25
100
AcDbLine
 10
52.4424806258
 20
138.5440552885
 30
0.0
 11
51.4424806258
 21
136.8120044809
 31
0.0
  0
LINE
  5
10C
330
1F
100
AcDbEntity
  8
0
  6
Continuous
 62
     7
370
    25
100
AcDbLine
 10
51.4424806258
 20
80.676106096
 30
0.0
 11
52.4424806258
 21
78.9440552885
 31
0.0
  0
LINE
  5
10D
330
1F
100
AcDbEntity
  8
0
  6
Continuous
 62
     7
370
    25
100
AcDbLine
 10
50.4424806258
 20
78.9440552885
 30
0.0
 11
51.4424806258
 21
80.676106096
 31
0.0
  0
LINE
  5
10E
330
1F
100
AcDbEntity
  8
0
  6
Continuous
 62
     7
370
    25
100
AcDbLine
 10
51.4424806258
 20
136.8120044809
 30
0.0
 11
50.4424806258
 21
138.5440552885
 31
0.0
  0
LINE
  5
10F
330
1F
100
AcDbEntity
  8
0
  6
Continuous
 62
     7
370
    25
100
AcDbLine
 10
50.4424806258
 20
138.5440552885
 30
0.0
 11
49.4424806258
 21
136.8120044809
 31
0.0
  0
LINE
  5
110
330
1F
100
AcDbEntity
  8
0
  6
Continuous
 62
     7
370
    25
100
AcDbLine
 10
49.4424806258
 20
80.676106096
 30
0.0
 11
50.4424806258
 21
78.9440552885
 31
0.0
  0
LINE
  5
111
330
1F
100
AcDbEntity
  8
0
  6
Continuous
 62
     7
370
    25
100
AcDbLine
 10
48.4424806258
 20
78.9440552885
 30
0.0
 11
49.4424806258
 21
80.676106096
 31
0.0
  0
LINE
  5
112
330
1F
100
AcDbEntity
  8
0
  6
Continuous
 62
     7
370
    25
100
AcDbLine
 10
49.4424806258
 20
136.8120044809
 30
0.0
 11
48.4424806258
 21
138.5440552885
 31
0.0
  0
LINE
  5
113
330
1F
100
AcDbEntity
  8
0
  6
Continuous
 62
     7
370
    25
100
AcDbLine
 10
48.4424806258
 20
138.5440552885
 30
0.0
 11
27.6424806258
 21
138.5440552885
 31
0.0
  0
LINE
  5
114
330
1F
100
AcDbEntity
  8
0
  6
Continuous
 62
     7
370
    25
100
AcDbLine
 10
27.6424806258
 20
78.9440552885
 30
0.0
 11
48.4424806258
 21
78.9440552885
 31
0.0
  0
LINE
  5
115
330
1F
100
AcDbEntity
  8
0
  6
Continuous
 62
     7
370
    25
100
AcDbLine
 10
10.6424806258
 20
63.7440552885
 30
0.0
 11
27.6424806258
 21
63.7440552885
 31
0.0
  0
LINE
  5
116
330
1F
100
AcDbEntity
  8
0
  6
Continuous
 62
     7
370
    25
100
AcDbLine
 10
27.6424806258
 20
153.7440552885
 30
0.0
 11
10.6424806258
 21
153.7440552885
 31
0.0
  0
LINE
  5
117
330
1F
100
AcDbEntity
  8
0
  6
Continuous
 62
     7
370
    25
100
AcDbLine
 10
10.6424806258
 20
88.1285271604
 30
0.0
 11
10.6424806258
 21
84.4108032011
 31
0.0
  0
LINE
  5
118
330
1F
100
AcDbEntity
  8
0
  6
Continuous
 62
     7
370
    25
100
AcDbLine
 10
10.6424806258
 20
88.1285271604
 30
0.0
 11
27.6424806258
 21
88.1285271604
 31
0.0
  0
LINE
  5
119
330
1F
100
AcDbEntity
  8
0
  6
Continuous
 62
     7
370
    25
100
AcDbLine
 10
27.6424806258
 20
84.4108032011
 30
0.0
 11
10.6424806258
 21
84.4108032011
 31
0.0
  0
LINE
  5
11A
330
1F
100
AcDbEntity
  8
0
  6
Continuous
 62
     7
370
    25
100
AcDbLine
 10
27.6424806258
 20
88.1285271604
 30
0.0
 11
27.6424806258
 21
84.4108032011
 31
0.0
  0
LINE
  5
11B
330
1F
100
AcDbEntity
  8
0
  6
Continuous
 62
     7
370
    25
100
AcDbLine
 10
10.6424806258
 20
133.0773073758
 30
0.0
 11
10.6424806258
 21
129.3595834165
 31
0.0
  0
LINE
  5
11C
330
1F
100
AcDbEntity
  8
0
  6
Continuous
 62
     7
370
    25
100
AcDbLine
 10
10.6424806258
 20
133.0773073758
 30
0.0
 11
27.6424806258
 21
133.0773073758
 31
0.0
  0
LINE
  5
11D
330
1F
100
AcDbEntity
  8
0
  6
Continuous
 62
     7
370
    25
100
AcDbLine
 10
27.6424806258
 20
129.3595834165
 30
0.0
 11
10.6424806258
 21
129.3595834165
 31
0.0
  0
LINE
  5
11E
330
1F
100
AcDbEntity
  8
0
  6
Continuous
 62
     7
370
    25
100
AcDbLine
 10
27.6424806258
 20
133.0773073758
 30
0.0
 11
27.6424806258
 21
129.3595834165
 31
0.0
  0
LINE
  5
11F
330
1F
100
AcDbEntity
  8
0
  6
Continuous
 62
     7
370
    25
100
AcDbLine
 10
10.6424806258
 20
129.3595834165
 30
0.0
 11
10.6424806258
 21
88.1285271604
 31
0.0
  0
LINE
  5
120
330
1F
100
AcDbEntity
  8
0
  6
Continuous
 62
     7
370
    25
100
AcDbLine
 10
27.6424806258
 20
88.1285271604
 30
0.0
 11
27.6424806258
 21
129.3595834165
 31
0.0
  0
LINE
  5
121
330
1F
100
AcDbEntity
  8
0
  6
Continuous
 62
     7
370
    25
100
AcDbLine
 10
10.6424806258
 20
63.795275073
 30
0.0
 11
27.6424806258
 21
63.795275073
 31
0.0
  0
LINE
  5
122
330
1F
100
AcDbEntity
  8
0
  6
Continuous
 62
     7
370
    25
100
AcDbLine
 10
10.6424806258
 20
84.4108032011
 30
0.0
 11
10.6424806258
 21
63.795275073
 31
0.0
  0
LINE
  5
123
330
1F
100
AcDbEntity
  8
0
  6
Continuous
 62
     7
370
    25
100
AcDbLine
 10
27.6424806258
 20
63.795275073
 30
0.0
 11
27.6424806258
 21
84.4108032011
 31
0.0
  0
LINE
  5
124
330
1F
100
AcDbEntity
  8
0
  6
Continuous
 62
     7
370
    25
100
AcDbLine
 10
27.6424806258
 20
153.6928355039
 30
0.0
 11
10.6424806258
 21
153.6928355039
 31
0.0
  0
LINE
  5
125
330
1F
100
AcDbEntity
  8
0
  6
Continuous
 62
     7
370
    25
100
AcDbLine
 10
10.6424806258
 20
153.6928355039
 30
0.0
 11
10.6424806258
 21
133.0773073758
 31
0.0
  0
LINE
  5
126
330
1F
100
AcDbEntity
  8
0
  6
Continuous
 62
     7
370
    25
100
AcDbLine
 10
27.6424806258
 20
133.0773073758
 30
0.0
 11
27.6424806258
 21
153.6928355039
 31
0.0
  0
LINE
  5
127
330
1F
100
AcDbEntity
  8
0
  6
Continuous
 62
     7
370
    25
100
AcDbLine
 10
-51.3575193742
 20
140.2440552885
 30
0.0
 11
-51.3575193742
 21
77.2440552885
 31
0.0
  0
LINE
  5
128
330
1F
100
AcDbEntity
  8
0
  6
Continuous
 62
     7
370
    25
100
AcDbLine
 10
54.4424806258
 20
138.5440552885
 30
0.0
 11
54.4424806258
 21
78.9440552885
 31
0.0
  0
LINE
  5
129
330
1F
100
AcDbEntity
  8
0
  6
Continuous
 62
     7
370
    25
100
AcDbLine
 10
54.6424806258
 20
138.5440552885
 30
0.0
 11
54.6424806258
 21
78.9440552885
 31
0.0
  0
LINE
  5
12A
330
1F
100
AcDbEntity
  8
0
  6
Continuous
 62
     7
370
    25
100
AcDbLine
 10
53.4424806258
 20
136.8120044809
 30
0.0
 11
53.4424806258
 21
80.676106096
 31
0.0
  0
LINE
  5
12B
330
1F
100
AcDbEntity
  8
0
  6
Continuous
 62
     7
370
    25
100
AcDbLine
 10
52.4424806258
 20
138.5440552885
 30
0.0
 11
52.4424806258
 21
78.9440552885
 31
0.0
  0
LINE
  5
12C
330
1F
100
AcDbEntity
  8
0
  6
Continuous
 62
     7
370
    25
100
AcDbLine
 10
51.4424806258
 20
136.8120044809
 30
0.0
 11
51.4424806258
 21
80.676106096
 31
0.0
  0
LINE
  5
12D
330
1F
100
AcDbEntity
  8
0
  6
Continuous
 62
     7
370
    25
100
AcDbLine
 10
50.4424806258
 20
138.5440552885
 30
0.0
 11
50.4424806258
 21
78.9440552885
 31
0.0
  0
LINE
  5
12E
330
1F
100
AcDbEntity
  8
0
  6
Continuous
 62
     7
370
    25
100
AcDbLine
 10
49.4424806258
 20
136.8120044809
 30
0.0
 11
49.4424806258
 21
80.676106096
 31
0.0
  0
LINE
  5
12F
330
1F
100
AcDbEntity
  8
0
  6
Continuous
 62
     7
370
    25
100
AcDbLine
 10
48.4424806258
 20
138.5440552885
 30
0.0
 11
48.4424806258
 21
78.9440552885
 31
0.0
  0
LINE
  5
130
330
1F
100
AcDbEntity
  8
0
  6
Continuous
 62
     7
370
    25
100
AcDbLine
 10
10.6424806258
 20
63.795275073
 30
0.0
 11
10.6424806258
 21
63.7440552885
 31
0.0
  0
LINE
  5
131
330
1F
100
AcDbEntity
  8
0
  6
Continuous
 62
     7
370
    25
100
AcDbLine
 10
27.6424806258
 20
63.795275073
 30
0.0
 11
27.6424806258
 21
63.7440552885
 31
0.0
  0
LINE
  5
132
330
1F
100
AcDbEntity
  8
0
  6
Continuous
 62
     7
370
    25
100
AcDbLine
 10
10.6424806258
 20
153.7440552885
 30
0.0
 11
10.6424806258
 21
153.6928355039
 31
0.0
  0
LINE
  5
133
330
1F
100
AcDbEntity
  8
0
  6
Continuous
 62
     7
370
    25
100
AcDbLine
 10
27.6424806258
 20
153.7440552885
 30
0.0
 11
27.6424806258
 21
153.6928355039
 31
0.0
  0
LINE
  5
134
330
1F
100
AcDbEntity
  8
0
  6
Continuous
 62
     7
370
    25
100
AcDbLine
 10
294.9212328161
 20
5.7587973377
 30
0.0
 11
251.0806123825
 21
31.0674488042
 31
0.0
  0
LINE
  5
135
330
1F
100
AcDbEntity
  8
0
  6
Continuous
 62
     7
370
    25
100
AcDbLine
 10
219.5831723045
 20
-23.4936295258
 30
0.0
 11
263.4237927381
 21
-48.8022809923
 31
0.0
  0
LINE
  5
136
330
1F
100
AcDbEntity
  8
0
  6
Continuous
 62
     7
370
    25
100
AcDbLine
 10
320.7999382222
 20
-11.1435990418
 30
0.0
 11
319.4775993047
 21
-10.3802290335
 31
0.0
  0
LINE
  5
137
330
1F
100
AcDbEntity
  8
0
  6
Continuous
 62
     7
370
    25
100
AcDbLine
 10
325.1840002656
 20
-13.6744641885
 30
0.0
 11
325.0425789093
 21
-13.5928233773
 31
0.0
  0
LINE
  5
138
330
1F
100
AcDbEntity
  8
0
  6
Continuous
 62
     7
370
    25
100
AcDbLine
 10
295.2450006768
 20
-65.2093355752
 30
0.0
 11
295.386422033
 21
-65.2909763864
 31
0.0
  0
LWPOLYLINE
  5
139
330
1F
100
AcDbEntity
  8
0
  6
Continuous
 62
     7
370
    25
100
AcDbPolyline
 90
      107
 70
   128
 43
0.0
 10
213.0580287361
 20
-9.071518122
 10
213.0971476153
 20
-7.5252049763
 10
213.2143668462
 20
-5.9391576154
 10
213.4092746921
 20
-4.3189470885
 10
213.6811865321
 20
-2.6702644443
 10
214.0291472658
 20
-0.9989007406
 10
214.4519346685
 20
0.6892732966
 10
214.9480636842
 20
2.3883278945
 10
215.5157916414
 20
4.0922950617
 10
216.153124375
 20
5.7951895515
 10
216.8578232306
 20
7.4910298848
 10
217.6274129278
 20
9.1738593607
 10
218.4591902546
 20
10.8377669793
 10
219.3502335628
 20
12.4769082042
 10
220.2974130304
 20
14.0855254923
 10
221.2974016549
 20
15.6579685166
 10
222.3466869398
 20
17.1887140136
 10
223.4415832323
 20
18.672385184
 10
224.5782446692
 20
20.1037705787
 10
225.7526786857
 20
21.4778424041
 10
226.9607600396
 20
22.7897741831
 10
228.198245301
 20
24.0349577072
 10
229.4607877578
 20
25.2090192241
 10
230.7439526836
 20
26.3078347997
 10
232.0432329148
 20
27.3275448044
 10
233.3540646822
 20
28.2645674695
 10
234.6718436414
 20
29.1156114687
 10
235.9919410457
 20
29.8776874789
 10
237.3097200048
 20
30.5481186805
 10
238.6205517722
 20
31.1245501592
 10
239.9198320034
 20
31.6049571786
 10
241.2029969292
 20
31.9876522915
 10
242.465539386
 20
32.2712912672
 10
243.7030246474
 20
32.4548778136
 10
244.9111060013
 20
32.5377670763
 10
246.0855400179
 20
32.5196679036
 10
247.2222014547
 20
32.4006438696
 10
248.3170977472
 20
32.1811130506
 10
249.3663830321
 20
31.8618465564
 10
250.3663716566
 20
31.4439658225
 10
251.3135511242
 20
30.9289386699
 10
252.2045944325
 20
30.3185741506
 10
253.0363717593
 20
29.6150161919
 10
253.8059614564
 20
28.820736067
 10
254.510660312
 20
27.9385237138
 10
255.1479930457
 20
26.9714779353
 10
255.7157210029
 20
25.9229955151
 10
256.2118500185
 20
24.7967592859
 10
256.6346374213
 20
23.5967251935
 10
256.982598155
 20
22.3271084016
 10
257.2545099949
 20
20.9923684853
 10
257.4494178408
 20
19.5971937673
 10
257.5666370718
 20
18.1464848497
 10
257.6057559509
 20
16.6453374004
 10
257.5666370718
 20
15.0990242546
 10
257.4494178408
 20
13.5129768937
 10
257.2545099949
 20
11.8927663669
 10
256.982598155
 20
10.2440837227
 10
256.6346374213
 20
8.5727200189
 10
256.2118500185
 20
6.8845459817
 10
255.7157210029
 20
5.1854913839
 10
255.1479930457
 20
3.4815242167
 10
254.510660312
 20
1.7786297269
 10
253.8059614564
 20
0.0827893935
 10
253.0363717593
 20
-1.6000400824
 10
252.2045944325
 20
-3.2639477009
 10
251.3135511242
 20
-4.9030889259
 10
250.3663716566
 20
-6.511706214
 10
249.3663830321
 20
-8.0841492383
 10
248.3170977472
 20
-9.6148947353
 10
247.2222014547
 20
-11.0985659057
 10
246.0855400179
 20
-12.5299513003
 10
244.9111060013
 20
-13.9040231258
 10
243.7030246474
 20
-15.2159549047
 10
242.465539386
 20
-16.4611384289
 10
241.2029969292
 20
-17.6351999457
 10
239.9198320034
 20
-18.7340155214
 10
238.6205517722
 20
-19.753725526
 10
237.3097200048
 20
-20.6907481911
 10
235.9919410457
 20
-21.5417921903
 10
234.6718436414
 20
-22.3038682006
 10
233.3540646822
 20
-22.9742994021
 10
232.0432329148
 20
-23.5507308809
 10
230.7439526836
 20
-24.0311379003
 10
229.4607877578
 20
-24.4138330131
 10
228.198245301
 20
-24.6974719889
 10
226.9607600396
 20
-24.8810585353
 10
225.7526786857
 20
-24.9639477979
 10
224.5782446692
 20
-24.9458486253
 10
223.4415832323
 20
-24.8268245913
 10
222.3466869398
 20
-24.6072937722
 10
221.2974016549
 20
-24.2880272781
 10
220.2974130304
 20
-23.8701465441
 10
219.3502335628
 20
-23.3551193916
 10
218.4591902546
 20
-22.7447548722
 10
217.6274129278
 20
-22.0411969136
 10
216.8578232306
 20
-21.2469167887
 10
216.153124375
 20
-20.3647044354
 10
215.5157916414
 20
-19.3976586569
 10
214.9480636842
 20
-18.3491762367
 10
214.4519346685
 20
-17.2229400075
 10
214.0291472658
 20
-16.0229059152
 10
213.6811865321
 20
-14.7532891232
 10
213.4092746921
 20
-13.4185492069
 10
213.2143668462
 20
-12.0233744889
 10
213.0971476153
 20
-10.5726655713
 10
213.0580287361
 20
-9.071518122
  0
LWPOLYLINE
  5
13A
330
1F
100
AcDbEntity
  8
0
  6
Continuous
 62
     7
370
    25
100
AcDbPolyline
 90
       55
 70
   128
 43
0.0
 10
294.9212328161
 20
5.7587973377
 10
295.1541715578
 20
5.6202872034
 10
296.0452148661
 20
5.009922684
 10
296.8769921928
 20
4.3063647254
 10
297.64658189
 20
3.5120846005
 10
298.3512807456
 20
2.6298722473
 10
298.9886134792
 20
1.6628264688
 10
299.5563414364
 20
0.6143440486
 10
300.0524704521
 20
-0.5118921806
 10
300.4752578548
 20
-1.711926273
 10
300.8232185886
 20
-2.9815430649
 10
301.0951304285
 20
-4.3162829812
 10
301.2900382744
 20
-5.7114576992
 10
301.4072575053
 20
-7.1621666169
 10
301.4463763845
 20
-8.6633140661
 10
301.4072575053
 20
-10.2096272119
 10
301.2900382744
 20
-11.7956745728
 10
301.0951304285
 20
-13.4158850996
 10
300.8232185886
 20
-15.0645677438
 10
300.4752578548
 20
-16.7359314476
 10
300.0524704521
 20
-18.4241054848
 10
299.5563414364
 20
-20.1231600826
 10
298.9886134792
 20
-21.8271272498
 10
298.3512807456
 20
-23.5300217396
 10
297.64658189
 20
-25.225862073
 10
296.8769921928
 20
-26.9086915489
 10
296.0452148661
 20
-28.5725991674
 10
295.1541715578
 20
-30.2117403924
 10
294.2069920902
 20
-31.8203576805
 10
293.2070034657
 20
-33.3928007048
 10
292.1577181808
 20
-34.9235462018
 10
291.0628218883
 20
-36.4072173722
 10
289.9261604514
 20
-37.8386027668
 10
288.7517264349
 20
-39.2126745923
 10
287.543645081
 20
-40.5246063712
 10
286.3061598196
 20
-41.7697898954
 10
285.0436173628
 20
-42.9438514122
 10
283.760452437
 20
-44.0426669879
 10
282.4611722058
 20
-45.0623769925
 10
281.1503404384
 20
-45.9993996576
 10
279.8325614792
 20
-46.8504436568
 10
278.5124640749
 20
-47.6125196671
 10
277.1946851158
 20
-48.2829508686
 10
275.8838533484
 20
-48.8593823474
 10
274.5845731172
 20
-49.3397893668
 10
273.3014081914
 20
-49.7224844796
 10
272.0388657346
 20
-50.0061234554
 10
270.8013804732
 20
-50.1897100018
 10
269.5932991193
 20
-50.2725992644
 10
268.4188651028
 20
-50.2545000918
 10
267.2822036659
 20
-50.1354760578
 10
266.1873073734
 20
-49.9159452387
 10
265.1380220885
 20
-49.5966787446
 10
264.138033464
 20
-49.1787980106
 10
263.4237927381
 20
-48.8022809923
  0
LWPOLYLINE
  5
13B
330
1F
100
AcDbEntity
  8
0
  6
Continuous
 62
     7
370
    25
100
AcDbPolyline
 90
       97
 70
   128
 43
0.0
 10
217.159248067
 20
-6.7039345977
 10
217.1981570934
 20
-5.3089817619
 10
217.314717558
 20
-3.8750789227
 10
217.5084303311
 20
-2.4083662722
 10
217.7784659049
 20
-0.9151244991
 10
218.1236679455
 20
0.598252106
 10
218.5425582449
 20
2.1252830323
 10
219.0333430504
 20
3.6594292987
 10
219.5939207461
 20
5.1941214556
 10
220.2218908524
 20
6.7227877154
 10
220.9145643048
 20
8.2388820946
 10
221.6689749693
 20
9.7359124442
 10
222.4818923435
 20
11.2074682505
 10
223.3498353905
 20
12.6472480856
 10
224.2690874449
 20
14.0490865913
 10
225.2357121282
 20
15.4069808797
 10
226.2455702053
 20
16.7151162391
 10
227.2943373087
 20
17.9678910331
 10
228.3775224566
 20
19.1599406877
 10
229.4904872841
 20
20.2861606632
 10
230.6284659049
 20
21.3417283128
 10
231.7865853197
 20
22.3221235338
 10
232.9598862835
 20
23.2231481233
 10
234.1433445415
 20
24.0409437558
 10
235.3318923435
 20
24.7720085046
 10
236.5204401456
 20
25.4132118385
 10
237.7038984035
 20
25.9618080262
 10
238.8771993673
 20
26.4154478946
 10
240.0353187822
 20
26.7721888883
 10
241.1732974029
 20
27.0305033874
 10
242.2862622304
 20
27.1892852497
 10
243.3694473784
 20
27.2478545468
 10
244.4182144818
 20
27.2059604761
 10
245.4280725588
 20
27.0637824343
 10
246.3946972421
 20
26.8219292496
 10
247.3139492965
 20
26.4814365746
 10
248.1818923435
 20
26.0437624511
 10
248.9948097177
 20
25.510781067
 10
249.7492203822
 20
24.8847747302
 10
250.4418938346
 20
24.1684240962
 10
251.0698639409
 20
23.3647966882
 10
251.6304416367
 20
22.4773337623
 10
252.1212264422
 20
21.5098355708
 10
252.5401167415
 20
20.4664450896
 10
252.8853187822
 20
19.3516302769
 10
253.1553543559
 20
18.170164941
 10
253.349067129
 20
16.9271082976
 10
253.4656275937
 20
15.6277833063
 10
253.50453662
 20
14.2777538761
 10
253.4656275937
 20
12.8828010403
 10
253.349067129
 20
11.4488982011
 10
253.1553543559
 20
9.9821855506
 10
252.8853187822
 20
8.4889437775
 10
252.5401167415
 20
6.9755671723
 10
252.1212264422
 20
5.4485362461
 10
251.6304416367
 20
3.9143899796
 10
251.0698639409
 20
2.3796978228
 10
250.4418938346
 20
0.851031563
 10
249.7492203822
 20
-0.6650628162
 10
248.9948097177
 20
-2.1620931658
 10
248.1818923435
 20
-3.6336489722
 10
247.3139492965
 20
-5.0734288073
 10
246.3946972421
 20
-6.4752673129
 10
245.4280725588
 20
-7.8331616013
 10
244.4182144818
 20
-9.1412969608
 10
243.3694473784
 20
-10.3940717548
 10
242.2862622304
 20
-11.5861214094
 10
241.1732974029
 20
-12.7123413849
 10
240.0353187822
 20
-13.7679090345
 10
238.8771993673
 20
-14.7483042555
 10
237.7038984035
 20
-15.649328845
 10
236.5204401456
 20
-16.4671244774
 10
235.3318923435
 20
-17.1981892263
 10
234.1433445415
 20
-17.8393925601
 10
232.9598862835
 20
-18.3879887478
 10
231.7865853197
 20
-18.8416286163
 10
230.6284659049
 20
-19.1983696099
 10
229.4904872841
 20
-19.4566841091
 10
228.3775224566
 20
-19.6154659713
 10
227.2943373087
 20
-19.6740352685
 10
226.2455702053
 20
-19.6321411977
 10
225.2357121282
 20
-19.4899631559
 10
224.2690874449
 20
-19.2481099713
 10
223.3498353905
 20
-18.9076172962
 10
222.4818923435
 20
-18.4699431728
 10
221.6689749693
 20
-17.9369617886
 10
220.9145643048
 20
-17.3109554519
 10
220.2218908524
 20
-16.5946048178
 10
219.5939207461
 20
-15.7909774099
 10
219.0333430504
 20
-14.9035144839
 10
218.5425582449
 20
-13.9360162924
 10
218.1236679455
 20
-12.8926258113
 10
217.7784659049
 20
-11.7778109986
 10
217.5084303311
 20
-10.5963456626
 10
217.314717558
 20
-9.3532890193
 10
217.1981570934
 20
-8.0539640279
 10
217.159248067
 20
-6.7039345977
  0
LWPOLYLINE
  5
13C
330
1F
100
AcDbEntity
  8
0
  6
Continuous
 62
     7
370
    25
100
AcDbPolyline
 90
       33
 70
   128
 43
0.0
 10
224.2303158789
 20
-10.7859751569
 10
224.2692249052
 20
-9.391022321
 10
224.3857853699
 20
-7.9571194818
 10
224.579498143
 20
-6.4904068313
 10
224.8495337168
 20
-4.9971650582
 10
225.1947357574
 20
-3.4837884531
 10
225.6136260567
 20
-1.9567575268
 10
226.1044108622
 20
-0.4226112604
 10
226.664988558
 20
1.1120808965
 10
227.2929586643
 20
2.6407471563
 10
227.9856321167
 20
4.1568415355
 10
228.7400427812
 20
5.6538718851
 10
229.5529601554
 20
7.1254276914
 10
230.4209032024
 20
8.5652075265
 10
231.3401552568
 20
9.9670460321
 10
232.3067799401
 20
11.3249403206
 10
233.3166380171
 20
12.63307568
 10
234.3654051205
 20
13.885850474
 10
235.4485902685
 20
15.0779001286
 10
236.561555096
 20
16.2041201041
 10
237.6995337168
 20
17.2596877537
 10
238.8576531316
 20
18.2400829747
 10
240.0309540954
 20
19.1411075642
 10
241.2144123533
 20
19.9589031967
 10
242.4029601554
 20
20.6899679455
 10
243.5915079575
 20
21.3311712794
 10
244.7749662154
 20
21.8797674671
 10
245.9482671792
 20
22.3334073355
 10
247.106386594
 20
22.6901483292
 10
248.2443652148
 20
22.9484628283
 10
249.3573300423
 20
23.1072446906
 10
250.4405151903
 20
23.1658139877
 10
251.220552392
 20
23.1444500494
  0
ARC
  5
13D
330
1F
100
AcDbEntity
  8
0
  6
Continuous
 62
     7
370
    25
100
AcDbCircle
 10
240.140790075
 20
-11.4150900219
 30
0.0
 40
15.92290723010023
100
AcDbArc
 50
177.7356514858
 51
211.1540954372
  0
LWPOLYLINE
  5
13E
330
1F
100
AcDbEntity
  8
0
  6
Continuous
 62
     7
370
    25
100
AcDbPolyline
 90
       31
 70
   128
 43
0.0
 10
230.1700128409
 20
-10.7859751569
 10
230.2087478222
 20
-9.5112098049
 10
230.3247553814
 20
-8.1982179075
 10
230.5174443708
 20
-6.8536901705
 10
230.7858328913
 20
-5.4844779989
 10
231.1285532965
 20
-4.0975585842
 10
231.5438591619
 20
-2.6999993497
 10
232.029634184
 20
-1.298921937
 10
232.5834029645
 20
0.0985340845
 10
233.2023436247
 20
1.4852475993
 10
233.8833021849
 20
2.8541522333
 10
234.6228086364
 20
4.1982723621
 10
235.4170946237
 20
5.5107586577
 10
236.2621126476
 20
6.7849229908
 10
237.1535566899
 20
8.014272512
 10
238.0868841561
 20
9.192542738
 10
239.0573390233
 20
10.3137294737
 10
240.0599760761
 20
11.3721194085
 10
241.0896861058
 20
12.3623192299
 10
242.1412219461
 20
13.2792831067
 10
243.2092252114
 20
14.1183384011
 10
244.288253602
 20
14.8752094796
 10
245.3728086364
 20
15.5460395008
 10
246.4573636708
 20
16.1274100685
 10
247.5363920613
 20
16.6163586517
 10
248.6043953267
 20
17.0103936804
 10
249.655931167
 20
17.3075072425
 10
250.6856411967
 20
17.5061853153
 10
251.6882782494
 20
17.605415481
 10
252.6587331167
 20
17.6046920853
 10
253.2625090855
 20
17.5515232795
  0
ARC
  5
13F
330
1F
100
AcDbEntity
  8
0
  6
Continuous
 62
     7
370
    25
100
AcDbCircle
 10
243.0257439982
 20
-11.3934554971
 30
0.0
 40
12.87007598866962
100
AcDbArc
 50
177.2945772111
 51
214.1813389862
  0
ARC
  5
140
330
1F
100
AcDbEntity
  8
0
  6
Continuous
 62
     7
370
    25
100
AcDbCircle
 10
257.9880474428
 20
-21.5277088803
 30
0.0
 40
42.40860011409218
100
AcDbArc
 50
297.6289311082
 51
302.3656923591
  0
LINE
  5
141
330
1F
100
AcDbEntity
  8
0
  6
Continuous
 62
     7
370
    25
100
AcDbLine
 10
277.6547583263
 20
-59.1004363121
 30
0.0
 11
252.4059959804
 21
-56.8428164846
 31
0.0
  0
ARC
  5
142
330
1F
100
AcDbEntity
  8
0
  6
Continuous
 62
     7
370
    25
100
AcDbCircle
 10
266.4415105013
 20
-45.3651386105
 30
0.0
 40
18.13098886567487
100
AcDbArc
 50
210.9264271959
 51
219.2749157968
  0
LINE
  5
143
330
1F
100
AcDbEntity
  8
0
  6
Continuous
 62
     7
370
    25
100
AcDbLine
 10
250.8882415296
 20
-54.6833241389
 30
0.0
 11
250.8882415296
 21
-41.5656613155
 31
0.0
  0
ARC
  5
144
330
1F
100
AcDbEntity
  8
0
  6
Continuous
 62
     7
370
    25
100
AcDbCircle
 10
299.7743431912
 20
-20.4597877075
 30
0.0
 40
41.20284313320865
100
AcDbArc
 50
117.5920951164
 51
120.5171192779
  0
LINE
  5
145
330
1F
100
AcDbEntity
  8
0
  6
Continuous
 62
     7
370
    25
100
AcDbLine
 10
280.6902672279
 20
16.0569526574
 30
0.0
 11
305.9390295738
 21
13.7993328299
 31
0.0
  0
ARC
  5
146
330
1F
100
AcDbEntity
  8
0
  6
Continuous
 62
     7
370
    25
100
AcDbCircle
 10
291.9035150529
 20
2.3216549559
 30
0.0
 40
18.1309888656799
100
AcDbArc
 50
30.9264271959
 51
39.2749157968
  0
LINE
  5
147
330
1F
100
AcDbEntity
  8
0
  6
Continuous
 62
     7
370
    25
100
AcDbLine
 10
307.4567840246
 20
11.6398404843
 30
0.0
 11
307.4567840246
 21
-22.026999666
 31
0.0
  0
ARC
  5
148
330
1F
100
AcDbEntity
  8
0
  6
Continuous
 62
     7
370
    25
100
AcDbCircle
 10
238.9044208487
 20
2.3201653164
 30
0.0
 40
72.7475837376844
100
AcDbArc
 50
337.1417234065
 51
340.4469168532
  0
LINE
  5
149
330
1F
100
AcDbEntity
  8
0
  6
Continuous
 62
     7
370
    25
100
AcDbLine
 10
305.9390295738
 20
-25.9388540005
 30
0.0
 11
280.6902672279
 21
-57.3480743233
 31
0.0
  0
LINE
  5
14A
330
1F
100
AcDbEntity
  8
0
  6
Continuous
 62
     7
370
    25
100
AcDbLine
 10
280.6902672279
 20
-57.3480743233
 30
0.0
 11
292.711082508
 21
-64.2875432738
 31
0.0
  0
LINE
  5
14B
330
1F
100
AcDbEntity
  8
0
  6
Continuous
 62
     7
370
    25
100
AcDbLine
 10
317.9598448539
 20
-32.878322951
 30
0.0
 11
305.9390295738
 21
-25.9388540005
 31
0.0
  0
LINE
  5
14C
330
1F
100
AcDbEntity
  8
0
  6
Continuous
 62
     7
370
    25
100
AcDbLine
 10
292.711082508
 20
-64.2875432738
 30
0.0
 11
317.9598448539
 21
-32.878322951
 31
0.0
  0
LINE
  5
14D
330
1F
100
AcDbEntity
  8
0
  6
Continuous
 62
     7
370
    25
100
AcDbLine
 10
307.4567840246
 20
-22.026999666
 30
0.0
 11
319.4775993047
 21
-28.9664686165
 31
0.0
  0
ARC
  5
14E
330
1F
100
AcDbEntity
  8
0
  6
Continuous
 62
     7
370
    25
100
AcDbCircle
 10
250.9252361289
 20
-4.6193036341
 30
0.0
 40
72.74758373769231
100
AcDbArc
 50
337.1417234065
 51
340.4469168532
  0
LINE
  5
14F
330
1F
100
AcDbEntity
  8
0
  6
Continuous
 62
     7
370
    25
100
AcDbLine
 10
319.4775993047
 20
4.7003715338
 30
0.0
 11
307.4567840246
 21
11.6398404843
 31
0.0
  0
LINE
  5
150
330
1F
100
AcDbEntity
  8
0
  6
Continuous
 62
     7
370
    25
100
AcDbLine
 10
319.4775993047
 20
-28.9664686165
 30
0.0
 11
319.4775993047
 21
4.7003715338
 31
0.0
  0
LINE
  5
151
330
1F
100
AcDbEntity
  8
0
  6
Continuous
 62
     7
370
    25
100
AcDbLine
 10
289.6755736065
 20
-66.0399052626
 30
0.0
 11
277.6547583263
 21
-59.1004363121
 31
0.0
  0
ARC
  5
152
330
1F
100
AcDbEntity
  8
0
  6
Continuous
 62
     7
370
    25
100
AcDbCircle
 10
270.008862723
 20
-28.4671778308
 30
0.0
 40
42.4086001140967
100
AcDbArc
 50
297.6289311082
 51
302.3656923591
  0
LINE
  5
153
330
1F
100
AcDbEntity
  8
0
  6
Continuous
 62
     7
370
    25
100
AcDbLine
 10
252.4059959804
 20
-56.8428164846
 30
0.0
 11
264.4268112606
 21
-63.7822854351
 31
0.0
  0
LINE
  5
154
330
1F
100
AcDbEntity
  8
0
  6
Continuous
 62
     7
370
    25
100
AcDbLine
 10
264.4268112606
 20
-63.7822854351
 30
0.0
 11
289.6755736065
 21
-66.0399052626
 31
0.0
  0
LWPOLYLINE
  5
155
330
1F
100
AcDbEntity
  8
0
  6
Continuous
 62
     7
370
    25
100
AcDbPolyline
 90
       51
 70
   128
 43
0.0
 10
320.7999382222
 20
-11.1435990418
 10
321.1380685429
 20
-11.3478642942
 10
321.9970752946
 20
-11.9558965661
 10
322.7962041437
 20
-12.6569154457
 10
323.5324822784
 20
-13.4483130967
 10
324.2031706956
 20
-14.3271454677
 10
324.8057743904
 20
-15.2901432448
 10
325.3380516375
 20
-16.3337240128
 10
325.7980223306
 20
-17.4540055828
 10
326.1839753485
 20
-18.6468204338
 10
326.4944749205
 20
-19.9077312162
 10
326.728365968
 20
-21.2320472591
 10
326.8847784008
 20
-22.6148420198
 10
326.9631303544
 20
-24.0509714109
 10
326.9631303544
 20
-25.5350929369
 10
326.8847784008
 20
-27.061685568
 10
326.728365968
 20
-28.6250702796
 10
326.4944749205
 20
-30.2194311778
 10
326.1839753485
 20
-31.8388371353
 10
325.7980223306
 20
-33.4772638556
 10
325.3380516375
 20
-35.1286162838
 10
324.8057743904
 20
-36.7867512802
 10
324.2031706956
 20
-38.4455004738
 10
323.5324822784
 20
-40.0986932086
 10
322.7962041437
 20
-41.7401794992
 10
321.9970752946
 20
-43.3638529087
 10
321.1380685429
 20
-44.9636732653
 10
320.2223794502
 20
-46.5336891323
 10
319.2534144399
 20
-48.0680599475
 10
318.2347781257
 20
-49.5610777507
 10
317.1702599014
 20
-51.0071884176
 10
316.0638198447
 20
-52.4010123216
 10
314.9195739855
 20
-53.7373643461
 10
313.7417789934
 20
-55.011273174
 10
312.5348163431
 20
-56.2179997806
 10
311.3031760149
 20
-57.3530550637
 10
310.0514397919
 20
-58.4122165432
 10
308.784264215
 20
-59.3915440687
 10
307.5063632604
 20
-60.2873944776
 10
306.2224908038
 20
-61.0964351474
 10
304.937422935
 20
-61.8156563939
 10
303.6559401908
 20
-62.4423826666
 10
302.3828097712
 20
-62.9742825026
 10
301.1227678051
 20
-63.4093771998
 10
299.8805017312
 20
-63.7460481771
 10
298.660632861
 20
-63.9830429965
 10
297.4676991868
 20
-64.1194800216
 10
296.3061385002
 20
-64.1548516979
 10
295.1802718833
 20
-64.0890264402
 10
294.0942876337
 20
-63.9222491229
 10
293.1866285718
 20
-63.6959684914
  0
LWPOLYLINE
  5
156
330
1F
100
AcDbEntity
  8
0
  6
Continuous
 62
     7
370
    25
100
AcDbPolyline
 90
       54
 70
   128
 43
0.0
 10
321.490261116
 20
-11.5808767936
 10
321.6365930126
 20
-11.6514886617
 10
322.5522821053
 20
-12.164272406
 10
323.411288857
 20
-12.772304678
 10
324.2104177061
 20
-13.4733235575
 10
324.9466958407
 20
-14.2647212085
 10
325.617384258
 20
-15.1435535795
 10
326.2199879528
 20
-16.1065513566
 10
326.7522651999
 20
-17.1501321246
 10
327.212235893
 20
-18.2704136947
 10
327.5981889109
 20
-19.4632285457
 10
327.9086884829
 20
-20.7241393281
 10
328.1425795304
 20
-22.0484553709
 10
328.2989919631
 20
-23.4312501316
 10
328.3773439167
 20
-24.8673795227
 10
328.3773439167
 20
-26.3515010487
 10
328.2989919631
 20
-27.8780936799
 10
328.1425795304
 20
-29.4414783915
 10
327.9086884829
 20
-31.0358392896
 10
327.5981889109
 20
-32.6552452472
 10
327.212235893
 20
-34.2936719675
 10
326.7522651999
 20
-35.9450243956
 10
326.2199879528
 20
-37.603159392
 10
325.617384258
 20
-39.2619085856
 10
324.9466958407
 20
-40.9151013205
 10
324.2104177061
 20
-42.556587611
 10
323.411288857
 20
-44.1802610205
 10
322.5522821053
 20
-45.7800813771
 10
321.6365930126
 20
-47.3500972441
 10
320.6676280023
 20
-48.8844680593
 10
319.648991688
 20
-50.3774858625
 10
318.5844734637
 20
-51.8235965294
 10
317.4780334071
 20
-53.2174204334
 10
316.3337875479
 20
-54.553772458
 10
315.1559925557
 20
-55.8276812858
 10
313.9490299054
 20
-57.0344078924
 10
312.7173895773
 20
-58.1694631755
 10
311.4656533543
 20
-59.228624655
 10
310.1984777773
 20
-60.2079521805
 10
308.9205768228
 20
-61.1038025894
 10
307.6367043662
 20
-61.9128432593
 10
306.3516364973
 20
-62.6320645057
 10
305.0701537531
 20
-63.2587907784
 10
303.7970233336
 20
-63.7906906145
 10
302.5369813674
 20
-64.2257853116
 10
301.2947152936
 20
-64.5624562889
 10
300.0748464234
 20
-64.7994511083
 10
298.8819127492
 20
-64.9358881335
 10
297.7203520626
 20
-64.9712598097
 10
296.5944854456
 20
-64.905434552
 10
295.5085011961
 20
-64.7386572347
 10
294.4664392467
 20
-64.4715482804
 10
293.4721761364
 20
-64.1051013519
 10
293.0231847502
 20
-63.8992910516
  0
LINE
  5
157
330
1F
100
AcDbEntity
  8
0
  6
Continuous
 62
     7
370
    25
100
AcDbLine
 10
305.9390295738
 20
13.7993328299
 30
0.0
 11
317.9598448539
 21
6.8598638795
 31
0.0
  0
ARC
  5
158
330
1F
100
AcDbEntity
  8
0
  6
Continuous
 62
     7
370
    25
100
AcDbCircle
 10
303.9243303331
 20
-4.6178139946
 30
0.0
 40
18.13098886567018
100
AcDbArc
 50
30.9264271959
 51
39.2749157968
  0
LWPOLYLINE
  5
159
330
1F
100
AcDbEntity
  8
0
  6
Continuous
 62
     7
370
    25
100
AcDbPolyline
 90
       55
 70
   128
 43
0.0
 10
322.9044746784
 20
-12.3972849054
 10
323.0508065749
 20
-12.4678967735
 10
323.9664956677
 20
-12.9806805179
 10
324.8255024194
 20
-13.5887127898
 10
325.6246312684
 20
-14.2897316694
 10
326.3609094031
 20
-15.0811293203
 10
327.0315978203
 20
-15.9599616914
 10
327.6342015152
 20
-16.9229594684
 10
328.1664787623
 20
-17.9665402364
 10
328.6264494554
 20
-19.0868218065
 10
329.0124024732
 20
-20.2796366575
 10
329.3229020453
 20
-21.5405474399
 10
329.5567930927
 20
-22.8648634828
 10
329.7132055255
 20
-24.2476582434
 10
329.7915574791
 20
-25.6837876346
 10
329.7915574791
 20
-27.1679091605
 10
329.7132055255
 20
-28.6945017917
 10
329.5567930927
 20
-30.2578865033
 10
329.3229020453
 20
-31.8522474015
 10
329.0124024732
 20
-33.471653359
 10
328.6264494554
 20
-35.1100800793
 10
328.1664787623
 20
-36.7614325074
 10
327.6342015152
 20
-38.4195675038
 10
327.0315978203
 20
-40.0783166974
 10
326.3609094031
 20
-41.7315094323
 10
325.6246312684
 20
-43.3729957229
 10
324.8255024194
 20
-44.9966691323
 10
323.9664956677
 20
-46.596489489
 10
323.0508065749
 20
-48.1665053559
 10
322.0818415647
 20
-49.7008761711
 10
321.0632052504
 20
-51.1938939743
 10
319.9986870261
 20
-52.6400046413
 10
318.8922469695
 20
-54.0338285452
 10
317.7480011102
 20
-55.3701805698
 10
316.5702061181
 20
-56.6440893976
 10
315.3632434678
 20
-57.8508160042
 10
314.1316031397
 20
-58.9858712873
 10
312.8798669167
 20
-60.0450327668
 10
311.6126913397
 20
-61.0243602924
 10
310.3347903852
 20
-61.9202107012
 10
309.0509179285
 20
-62.7292513711
 10
307.7658500597
 20
-63.4484726175
 10
306.4843673155
 20
-64.0751988902
 10
305.2112368959
 20
-64.6070987263
 10
303.9511949298
 20
-65.0421934234
 10
302.7089288559
 20
-65.3788644007
 10
301.4890599857
 20
-65.6158592201
 10
300.2961263115
 20
-65.7522962453
 10
299.1345656249
 20
-65.7876679215
 10
298.008699008
 20
-65.7218426638
 10
296.9227147585
 20
-65.5550653466
 10
295.8806528091
 20
-65.2879563922
 10
294.8863896988
 20
-64.9215094638
 10
293.9436241516
 20
-64.4570877677
 10
293.1404642206
 20
-63.9556497116
  0
LWPOLYLINE
  5
15A
330
1F
100
AcDbEntity
  8
0
  6
Continuous
 62
     7
370
    25
100
AcDbPolyline
 90
       55
 70
   128
 43
0.0
 10
324.3186882408
 20
-13.2136930173
 10
324.4650201373
 20
-13.2843048854
 10
325.3807092301
 20
-13.7970886297
 10
326.2397159817
 20
-14.4051209016
 10
327.0388448308
 20
-15.1061397812
 10
327.7751229655
 20
-15.8975374321
 10
328.4458113827
 20
-16.7763698032
 10
329.0484150775
 20
-17.7393675802
 10
329.5806923247
 20
-18.7829483483
 10
330.0406630177
 20
-19.9032299183
 10
330.4266160356
 20
-21.0960447693
 10
330.7371156077
 20
-22.3569555517
 10
330.9710066551
 20
-23.6812715946
 10
331.1274190879
 20
-25.0640663552
 10
331.2057710415
 20
-26.5001957464
 10
331.2057710415
 20
-27.9843172723
 10
331.1274190879
 20
-29.5109099035
 10
330.9710066551
 20
-31.0742946151
 10
330.7371156077
 20
-32.6686555133
 10
330.4266160356
 20
-34.2880614708
 10
330.0406630177
 20
-35.9264881911
 10
329.5806923247
 20
-37.5778406192
 10
329.0484150775
 20
-39.2359756156
 10
328.4458113827
 20
-40.8947248092
 10
327.7751229655
 20
-42.5479175441
 10
327.0388448308
 20
-44.1894038347
 10
326.2397159817
 20
-45.8130772442
 10
325.3807092301
 20
-47.4128976008
 10
324.4650201373
 20
-48.9829134678
 10
323.4960551271
 20
-50.517284283
 10
322.4774188128
 20
-52.0103020862
 10
321.4129005885
 20
-53.4564127531
 10
320.3064605319
 20
-54.850236657
 10
319.1622146726
 20
-56.1865886816
 10
317.9844196805
 20
-57.4604975094
 10
316.7774570302
 20
-58.667224116
 10
315.5458167021
 20
-59.8022793992
 10
314.294080479
 20
-60.8614408786
 10
313.0269049021
 20
-61.8407684042
 10
311.7490039475
 20
-62.7366188131
 10
310.4651314909
 20
-63.5456594829
 10
309.1800636221
 20
-64.2648807293
 10
307.8985808779
 20
-64.891607002
 10
306.6254504583
 20
-65.4235068381
 10
305.3654084922
 20
-65.8586015352
 10
304.1231424183
 20
-66.1952725126
 10
302.9032735481
 20
-66.432267332
 10
301.7103398739
 20
-66.5687043571
 10
300.5487791873
 20
-66.6040760333
 10
299.4229125704
 20
-66.5382507757
 10
298.3369283209
 20
-66.3714734584
 10
297.2948663715
 20
-66.1043645041
 10
296.3006032612
 20
-65.7379175756
 10
295.357837714
 20
-65.2734958795
 10
294.554677783
 20
-64.7720578234
  0
LWPOLYLINE
  5
15B
330
1F
100
AcDbEntity
  8
0
  6
Continuous
 62
     7
370
    25
100
AcDbPolyline
 90
       54
 70
   128
 43
0.0
 10
325.1840002656
 20
-13.6744641885
 10
325.5221305863
 20
-13.8787294409
 10
326.381137338
 20
-14.4867617128
 10
327.1802661871
 20
-15.1877805924
 10
327.9165443217
 20
-15.9791782433
 10
328.5872327389
 20
-16.8580106144
 10
329.1898364338
 20
-17.8210083914
 10
329.7221136809
 20
-18.8645891594
 10
330.182084374
 20
-19.9848707295
 10
330.5680373918
 20
-21.1776855805
 10
330.8785369639
 20
-22.4385963629
 10
331.1124280113
 20
-23.7629124058
 10
331.2688404441
 20
-25.1457071664
 10
331.3471923977
 20
-26.5818365576
 10
331.3471923977
 20
-28.0659580835
 10
331.2688404441
 20
-29.5925507147
 10
331.1124280113
 20
-31.1559354263
 10
330.8785369639
 20
-32.7502963245
 10
330.5680373918
 20
-34.369702282
 10
330.182084374
 20
-36.0081290023
 10
329.7221136809
 20
-37.6594814304
 10
329.1898364338
 20
-39.3176164268
 10
328.5872327389
 20
-40.9763656204
 10
327.9165443217
 20
-42.6295583553
 10
327.1802661871
 20
-44.2710446459
 10
326.381137338
 20
-45.8947180553
 10
325.5221305863
 20
-47.494538412
 10
324.6064414935
 20
-49.0645542789
 10
323.6374764833
 20
-50.5989250941
 10
322.618840169
 20
-52.0919428973
 10
321.5543219447
 20
-53.5380535643
 10
320.4478818881
 20
-54.9318774682
 10
319.3036360288
 20
-56.2682294928
 10
318.1258410367
 20
-57.5421383206
 10
316.9188783864
 20
-58.7488649272
 10
315.6872380583
 20
-59.8839202104
 10
314.4355018353
 20
-60.9430816898
 10
313.1683262583
 20
-61.9224092154
 10
311.8904253038
 20
-62.8182596242
 10
310.6065528472
 20
-63.6273002941
 10
309.3214849783
 20
-64.3465215405
 10
308.0400022341
 20
-64.9732478132
 10
306.7668718146
 20
-65.5051476493
 10
305.5068298484
 20
-65.9402423464
 10
304.2645637745
 20
-66.2769133237
 10
303.0446949044
 20
-66.5139081431
 10
301.8517612301
 20
-66.6503451683
 10
300.6902005436
 20
-66.6857168445
 10
299.5643339266
 20
-66.6198915868
 10
298.4783496771
 20
-66.4531142696
 10
297.4362877277
 20
-66.1860053152
 10
296.4420246174
 20
-65.8195583868
 10
295.4992590702
 20
-65.3551366907
 10
295.386422033
 20
-65.2909763864
  0
LINE
  5
15C
330
1F
100
AcDbEntity
  8
0
  6
Continuous
 62
     7
370
    25
100
AcDbLine
 10
108.3323425481
 20
-14.4378461766
 30
0.0
 11
108.3323425481
 21
-76.4378461766
 31
0.0
  0
LINE
  5
15D
330
1F
100
AcDbEntity
  8
0
  6
Continuous
 62
     7
370
    25
100
AcDbLine
 10
171.3323425481
 20
-76.4378461766
 30
0.0
 11
171.3323425481
 21
-14.4378461766
 31
0.0
  0
LINE
  5
15E
330
1F
100
AcDbEntity
  8
0
  6
Continuous
 62
     7
370
    25
100
AcDbLine
 10
110.0323425481
 20
29.5621538234
 30
0.0
 11
110.0323425481
 21
29.3621538234
 31
0.0
  0
LINE
  5
15F
330
1F
100
AcDbEntity
  8
0
  6
Continuous
 62
     7
370
    25
100
AcDbLine
 10
169.6323425481
 20
29.3621538234
 30
0.0
 11
169.6323425481
 21
29.5621538234
 31
0.0
  0
LINE
  5
160
330
1F
100
AcDbEntity
  8
0
  6
Continuous
 62
     7
370
    25
100
AcDbLine
 10
110.0323425481
 20
29.3621538234
 30
0.0
 11
111.7643933556
 21
28.3621538234
 31
0.0
  0
LINE
  5
161
330
1F
100
AcDbEntity
  8
0
  6
Continuous
 62
     7
370
    25
100
AcDbLine
 10
167.9002917405
 20
28.3621538234
 30
0.0
 11
169.6323425481
 21
29.3621538234
 31
0.0
  0
LINE
  5
162
330
1F
100
AcDbEntity
  8
0
  6
Continuous
 62
     7
370
    25
100
AcDbLine
 10
169.6323425481
 20
27.3621538234
 30
0.0
 11
167.9002917405
 21
28.3621538234
 31
0.0
  0
LINE
  5
163
330
1F
100
AcDbEntity
  8
0
  6
Continuous
 62
     7
370
    25
100
AcDbLine
 10
111.7643933556
 20
28.3621538234
 30
0.0
 11
110.0323425481
 21
27.3621538234
 31
0.0
  0
LINE
  5
164
330
1F
100
AcDbEntity
  8
0
  6
Continuous
 62
     7
370
    25
100
AcDbLine
 10
110.0323425481
 20
27.3621538234
 30
0.0
 11
111.7643933556
 21
26.3621538234
 31
0.0
  0
LINE
  5
165
330
1F
100
AcDbEntity
  8
0
  6
Continuous
 62
     7
370
    25
100
AcDbLine
 10
167.9002917405
 20
26.3621538234
 30
0.0
 11
169.6323425481
 21
27.3621538234
 31
0.0
  0
LINE
  5
166
330
1F
100
AcDbEntity
  8
0
  6
Continuous
 62
     7
370
    25
100
AcDbLine
 10
169.6323425481
 20
25.3621538234
 30
0.0
 11
167.9002917405
 21
26.3621538234
 31
0.0
  0
LINE
  5
167
330
1F
100
AcDbEntity
  8
0
  6
Continuous
 62
     7
370
    25
100
AcDbLine
 10
111.7643933556
 20
26.3621538234
 30
0.0
 11
110.0323425481
 21
25.3621538234
 31
0.0
  0
LINE
  5
168
330
1F
100
AcDbEntity
  8
0
  6
Continuous
 62
     7
370
    25
100
AcDbLine
 10
110.0323425481
 20
25.3621538234
 30
0.0
 11
111.7643933556
 21
24.3621538234
 31
0.0
  0
LINE
  5
169
330
1F
100
AcDbEntity
  8
0
  6
Continuous
 62
     7
370
    25
100
AcDbLine
 10
167.9002917405
 20
24.3621538234
 30
0.0
 11
169.6323425481
 21
25.3621538234
 31
0.0
  0
LINE
  5
16A
330
1F
100
AcDbEntity
  8
0
  6
Continuous
 62
     7
370
    25
100
AcDbLine
 10
169.6323425481
 20
23.3621538234
 30
0.0
 11
167.9002917405
 21
24.3621538234
 31
0.0
  0
LINE
  5
16B
330
1F
100
AcDbEntity
  8
0
  6
Continuous
 62
     7
370
    25
100
AcDbLine
 10
111.7643933556
 20
24.3621538234
 30
0.0
 11
110.0323425481
 21
23.3621538234
 31
0.0
  0
LINE
  5
16C
330
1F
100
AcDbEntity
  8
0
  6
Continuous
 62
     7
370
    25
100
AcDbLine
 10
110.0323425481
 20
23.3621538234
 30
0.0
 11
110.0323425481
 21
2.5621538234
 31
0.0
  0
LINE
  5
16D
330
1F
100
AcDbEntity
  8
0
  6
Continuous
 62
     7
370
    25
100
AcDbLine
 10
169.6323425481
 20
2.5621538234
 30
0.0
 11
169.6323425481
 21
23.3621538234
 31
0.0
  0
LINE
  5
16E
330
1F
100
AcDbEntity
  8
0
  6
Continuous
 62
     7
370
    25
100
AcDbLine
 10
137.6859136194
 20
-14.4378461766
 30
0.0
 11
141.9787714767
 21
-14.4378461766
 31
0.0
  0
LINE
  5
16F
330
1F
100
AcDbEntity
  8
0
  6
Continuous
 62
     7
370
    25
100
AcDbLine
 10
137.6859136194
 20
-14.4378461766
 30
0.0
 11
137.6859136194
 21
2.5621538234
 31
0.0
  0
LINE
  5
170
330
1F
100
AcDbEntity
  8
0
  6
Continuous
 62
     7
370
    25
100
AcDbLine
 10
141.9787714767
 20
2.5621538234
 30
0.0
 11
141.9787714767
 21
-14.4378461766
 31
0.0
  0
LINE
  5
171
330
1F
100
AcDbEntity
  8
0
  6
Continuous
 62
     7
370
    25
100
AcDbLine
 10
137.6859136194
 20
2.5621538234
 30
0.0
 11
141.9787714767
 21
2.5621538234
 31
0.0
  0
LINE
  5
172
330
1F
100
AcDbEntity
  8
0
  6
Continuous
 62
     7
370
    25
100
AcDbLine
 10
177.6859136194
 20
-14.4378461766
 30
0.0
 11
177.6859136194
 21
2.5621538234
 31
0.0
  0
LINE
  5
173
330
1F
100
AcDbEntity
  8
0
  6
Continuous
 62
     7
370
    25
100
AcDbLine
 10
141.9787714767
 20
-14.4378461766
 30
0.0
 11
177.6859136194
 21
-14.4378461766
 31
0.0
  0
LINE
  5
174
330
1F
100
AcDbEntity
  8
0
  6
Continuous
 62
     7
370
    25
100
AcDbLine
 10
177.6859136194
 20
2.5621538234
 30
0.0
 11
141.9787714767
 21
2.5621538234
 31
0.0
  0
LINE
  5
175
330
1F
100
AcDbEntity
  8
0
  6
Continuous
 62
     7
370
    25
100
AcDbLine
 10
101.9787714767
 20
2.5621538234
 30
0.0
 11
101.9787714767
 21
-14.4378461766
 31
0.0
  0
LINE
  5
176
330
1F
100
AcDbEntity
  8
0
  6
Continuous
 62
     7
370
    25
100
AcDbLine
 10
101.9787714767
 20
-14.4378461766
 30
0.0
 11
137.6859136194
 21
-14.4378461766
 31
0.0
  0
LINE
  5
177
330
1F
100
AcDbEntity
  8
0
  6
Continuous
 62
     7
370
    25
100
AcDbLine
 10
137.6859136194
 20
2.5621538234
 30
0.0
 11
101.9787714767
 21
2.5621538234
 31
0.0
  0
LINE
  5
178
330
1F
100
AcDbEntity
  8
0
  6
Continuous
 62
     7
370
    25
100
AcDbLine
 10
108.3323425481
 20
-76.4378461766
 30
0.0
 11
171.3323425481
 21
-76.4378461766
 31
0.0
  0
LINE
  5
179
330
1F
100
AcDbEntity
  8
0
  6
Continuous
 62
     7
370
    25
100
AcDbLine
 10
110.0323425481
 20
29.3621538234
 30
0.0
 11
169.6323425481
 21
29.3621538234
 31
0.0
  0
LINE
  5
17A
330
1F
100
AcDbEntity
  8
0
  6
Continuous
 62
     7
370
    25
100
AcDbLine
 10
110.0323425481
 20
29.5621538234
 30
0.0
 11
169.6323425481
 21
29.5621538234
 31
0.0
  0
LINE
  5
17B
330
1F
100
AcDbEntity
  8
0
  6
Continuous
 62
     7
370
    25
100
AcDbLine
 10
111.7643933556
 20
28.3621538234
 30
0.0
 11
167.9002917405
 21
28.3621538234
 31
0.0
  0
LINE
  5
17C
330
1F
100
AcDbEntity
  8
0
  6
Continuous
 62
     7
370
    25
100
AcDbLine
 10
110.0323425481
 20
27.3621538234
 30
0.0
 11
169.6323425481
 21
27.3621538234
 31
0.0
  0
LINE
  5
17D
330
1F
100
AcDbEntity
  8
0
  6
Continuous
 62
     7
370
    25
100
AcDbLine
 10
111.7643933556
 20
26.3621538234
 30
0.0
 11
167.9002917405
 21
26.3621538234
 31
0.0
  0
LINE
  5
17E
330
1F
100
AcDbEntity
  8
0
  6
Continuous
 62
     7
370
    25
100
AcDbLine
 10
110.0323425481
 20
25.3621538234
 30
0.0
 11
169.6323425481
 21
25.3621538234
 31
0.0
  0
LINE
  5
17F
330
1F
100
AcDbEntity
  8
0
  6
Continuous
 62
     7
370
    25
100
AcDbLine
 10
111.7643933556
 20
24.3621538234
 30
0.0
 11
167.9002917405
 21
24.3621538234
 31
0.0
  0
LINE
  5
180
330
1F
100
AcDbEntity
  8
0
  6
Continuous
 62
     7
370
    25
100
AcDbLine
 10
110.0323425481
 20
23.3621538234
 30
0.0
 11
169.6323425481
 21
23.3621538234
 31
0.0
  0
LINE
  5
181
330
1F
100
AcDbEntity
  8
0
  6
Continuous
 62
     7
370
    25
100
AcDbLine
 10
179.8323425481
 20
2.5621538234
 30
0.0
 11
179.8323425481
 21
-14.4378461766
 31
0.0
  0
LINE
  5
182
330
1F
100
AcDbEntity
  8
0
  6
Continuous
 62
     7
370
    25
100
AcDbLine
 10
177.6859136194
 20
-14.4378461766
 30
0.0
 11
179.8323425481
 21
-14.4378461766
 31
0.0
  0
LINE
  5
183
330
1F
100
AcDbEntity
  8
0
  6
Continuous
 62
     7
370
    25
100
AcDbLine
 10
177.6859136194
 20
2.5621538234
 30
0.0
 11
179.8323425481
 21
2.5621538234
 31
0.0
  0
LINE
  5
184
330
1F
100
AcDbEntity
  8
0
  6
Continuous
 62
     7
370
    25
100
AcDbLine
 10
99.8323425481
 20
-14.4378461766
 30
0.0
 11
99.8323425481
 21
2.5621538234
 31
0.0
  0
LINE
  5
185
330
1F
100
AcDbEntity
  8
0
  6
Continuous
 62
     7
370
    25
100
AcDbLine
 10
99.8323425481
 20
-14.4378461766
 30
0.0
 11
101.9787714767
 21
-14.4378461766
 31
0.0
  0
LINE
  5
186
330
1F
100
AcDbEntity
  8
0
  6
Continuous
 62
     7
370
    25
100
AcDbLine
 10
99.8323425481
 20
2.5621538234
 30
0.0
 11
101.9787714767
 21
2.5621538234
 31
0.0
  0
ENDSEC
  0
SECTION
  2
OBJECTS
  0
DICTIONARY
  5
C
330
0
100
AcDbDictionary
281
     1
  3
ACAD_GROUP
350
D
  3
ACAD_LAYOUT
350
1A
  3
ACAD_MLINESTYLE
350
17
  3
ACAD_PLOTSETTINGS
350
19
  3
ACAD_PLOTSTYLENAME
350
E
  3
ACAD_SCALELIST
350
47
  3
DWGPROPS
350
187
  0
DICTIONARY
  5
D
102
{ACAD_REACTORS
330
C
102
}
330
C
100
AcDbDictionary
281
     1
  0
DICTIONARY
  5
1A
102
{ACAD_REACTORS
330
C
102
}
330
C
100
AcDbDictionary
281
     1
  3
Layout1
350
1E
  3
Layout2
350
26
  3
Model
350
22
  0
DICTIONARY
  5
17
102
{ACAD_REACTORS
330
C
102
}
330
C
100
AcDbDictionary
281
     1
  3
Standard
350
18
  0
DICTIONARY
  5
19
102
{ACAD_REACTORS
330
C
102
}
330
C
100
AcDbDictionary
281
     1
  0
ACDBDICTIONARYWDFLT
  5
E
102
{ACAD_REACTORS
330
C
102
}
330
C
100
AcDbDictionary
281
     1
  3
Normal
350
F
100
AcDbDictionaryWithDefault
340
F
  0
DICTIONARY
  5
47
102
{ACAD_REACTORS
330
C
102
}
330
C
100
AcDbDictionary
281
     1
  3
A0
350
48
  3
A1
350
49
  3
A2
350
4A
  3
A3
350
4B
  3
A4
350
4C
  3
A5
350
4D
  3
A6
350
4E
  3
A7
350
4F
  3
A8
350
50
  3
A9
350
51
  3
B0
350
52
  3
B1
350
53
  3
B2
350
54
  3
B3
350
55
  3
B4
350
56
  3
B5
350
57
  3
B6
350
58
  3
B7
350
59
  3
B8
350
5A
  3
B9
350
5B
  3
C0
350
5C
  3
C1
350
5D
  3
C2
350
5E
  3
C3
350
5F
  3
C4
350
60
  3
C5
350
61
  3
C6
350
62
  3
C7
350
63
  3
C8
350
64
  3
C9
350
65
  3
D0
350
66
  3
D1
350
67
  3
D2
350
68
  0
XRECORD
  5
187
102
{ACAD_REACTORS
330
C
102
}
330
C
100
AcDbXrecord
280
     1
  1
DWGPROPS COOKIE
  2

  3

  4

  6

  7

  8
b.kav
  9

300
=
301
=
302
=
303
=
304
=
305
=
306
=
307
=
308
=
309
=
 40
0.0
 41
2459935.584219063
 42
2459935.584219248
  1

 90
        0
  0
LAYOUT
  5
1E
102
{ACAD_REACTORS
330
1A
102
}
330
1A
100
AcDbPlotSettings
  1

  2
none_device
  4

  6

 40
0.0
 41
0.0
 42
0.0
 43
0.0
 44
0.0
 45
0.0
 46
0.0
 47
0.0
 48
0.0
 49
0.0
140
0.0
141
0.0
142
1.0
143
1.0
 70
   688
 72
     1
 73
     0
 74
     5
  7

 75
    16
147
1.0
148
0.0
149
0.0
100
AcDbLayout
  1
Layout1
 70
     1
 71
     1
 10
0.0
 20
0.0
 11
420.0
 21
297.0
 12
0.0
 22
0.0
 32
0.0
 14
1.0000000000E+20
 24
1.0000000000E+20
 34
1.0000000000E+20
 15
-1.0000000000E+20
 25
-1.0000000000E+20
 35
-1.0000000000E+20
146
0.0
 13
0.0
 23
0.0
 33
0.0
 16
1.0
 26
0.0
 36
0.0
 17
0.0
 27
1.0
 37
0.0
 76
     0
330
1B
  0
LAYOUT
  5
26
102
{ACAD_REACTORS
330
1A
102
}
330
1A
100
AcDbPlotSettings
  1

  2
none_device
  4

  6

 40
0.0
 41
0.0
 42
0.0
 43
0.0
 44
0.0
 45
0.0
 46
0.0
 47
0.0
 48
0.0
 49
0.0
140
0.0
141
0.0
142
1.0
143
1.0
 70
   688
 72
     1
 73
     0
 74
     5
  7

 75
    16
147
1.0
148
0.0
149
0.0
100
AcDbLayout
  1
Layout2
 70
     1
 71
     2
 10
0.0
 20
0.0
 11
0.0
 21
0.0
 12
0.0
 22
0.0
 32
0.0
 14
0.0
 24
0.0
 34
0.0
 15
0.0
 25
0.0
 35
0.0
146
0.0
 13
0.0
 23
0.0
 33
0.0
 16
1.0
 26
0.0
 36
0.0
 17
0.0
 27
1.0
 37
0.0
 76
     0
330
23
  0
LAYOUT
  5
22
102
{ACAD_REACTORS
330
1A
102
}
330
1A
100
AcDbPlotSettings
  1

  2
none_device
  4
Letter_(8.50_x_11.00_Inches)
  6

 40
6.35
 41
6.35
 42
6.35000508
 43
6.35000508
 44
215.9
 45
279.4
 46
0.0
 47
0.0
 48
0.0
 49
0.0
140
0.0
141
0.0
142
1.0
143
1.0
 70
  1712
 72
     1
 73
     0
 74
     0
  7

 75
     0
147
1.0
148
0.0
149
0.0
100
AcDbLayout
  1
Model
 70
     1
 71
     0
 10
0.0
 20
0.0
 11
279.4
 21
215.9
 12
0.0
 22
0.0
 32
0.0
 14
0.0
 24
0.0
 34
0.0
 15
279.4
 25
215.9
 35
0.0
146
0.0
 13
0.0
 23
0.0
 33
0.0
 16
1.0
 26
0.0
 36
0.0
 17
0.0
 27
1.0
 37
0.0
 76
     0
330
1F
331
29
  0
MLINESTYLE
  5
18
102
{ACAD_REACTORS
330
17
102
}
330
17
100
AcDbMlineStyle
  2
Standard
 70
     0
  3

 62
   256
 51
90.0
 52
90.0
 71
     2
 49
0.5
 62
   256
  6
BYLAYER
 49
-0.5
 62
   256
  6
BYLAYER
  0
ACDBPLACEHOLDER
  5
F
102
{ACAD_REACTORS
330
E
102
}
330
E
  0
SCALE
  5
48
102
{ACAD_REACTORS
330
47
102
}
330
47
100
AcDbScale
 70
     0
300
1:1
140
1.0
141
1.0
290
     1
  0
SCALE
  5
49
102
{ACAD_REACTORS
330
47
102
}
330
47
100
AcDbScale
 70
     0
300
1:2
140
1.0
141
2.0
290
     0
  0
SCALE
  5
4A
102
{ACAD_REACTORS
330
47
102
}
330
47
100
AcDbScale
 70
     0
300
1:4
140
1.0
141
4.0
290
     0
  0
SCALE
  5
4B
102
{ACAD_REACTORS
330
47
102
}
330
47
100
AcDbScale
 70
     0
300
1:5
140
1.0
141
5.0
290
     0
  0
SCALE
  5
4C
102
{ACAD_REACTORS
330
47
102
}
330
47
100
AcDbScale
 70
     0
300
1:8
140
1.0
141
8.0
290
     0
  0
SCALE
  5
4D
102
{ACAD_REACTORS
330
47
102
}
330
47
100
AcDbScale
 70
     0
300
1:10
140
1.0
141
10.0
290
     0
  0
SCALE
  5
4E
102
{ACAD_REACTORS
330
47
102
}
330
47
100
AcDbScale
 70
     0
300
1:16
140
1.0
141
16.0
290
     0
  0
SCALE
  5
4F
102
{ACAD_REACTORS
330
47
102
}
330
47
100
AcDbScale
 70
     0
300
1:20
140
1.0
141
20.0
290
     0
  0
SCALE
  5
50
102
{ACAD_REACTORS
330
47
102
}
330
47
100
AcDbScale
 70
     0
300
1:30
140
1.0
141
30.0
290
     0
  0
SCALE
  5
51
102
{ACAD_REACTORS
330
47
102
}
330
47
100
AcDbScale
 70
     0
300
1:40
140
1.0
141
40.0
290
     0
  0
SCALE
  5
52
102
{ACAD_REACTORS
330
47
102
}
330
47
100
AcDbScale
 70
     0
300
1:50
140
1.0
141
50.0
290
     0
  0
SCALE
  5
53
102
{ACAD_REACTORS
330
47
102
}
330
47
100
AcDbScale
 70
     0
300
1:100
140
1.0
141
100.0
290
     0
  0
SCALE
  5
54
102
{ACAD_REACTORS
330
47
102
}
330
47
100
AcDbScale
 70
     0
300
2:1
140
2.0
141
1.0
290
     0
  0
SCALE
  5
55
102
{ACAD_REACTORS
330
47
102
}
330
47
100
AcDbScale
 70
     0
300
4:1
140
4.0
141
1.0
290
     0
  0
SCALE
  5
56
102
{ACAD_REACTORS
330
47
102
}
330
47
100
AcDbScale
 70
     0
300
8:1
140
8.0
141
1.0
290
     0
  0
SCALE
  5
57
102
{ACAD_REACTORS
330
47
102
}
330
47
100
AcDbScale
 70
     0
300
10:1
140
10.0
141
1.0
290
     0
  0
SCALE
  5
58
102
{ACAD_REACTORS
330
47
102
}
330
47
100
AcDbScale
 70
     0
300
100:1
140
100.0
141
1.0
290
     0
  0
SCALE
  5
59
102
{ACAD_REACTORS
330
47
102
}
330
47
100
AcDbScale
 70
     0
300
1/128" = 1'-0"
140
0.0078125
141
12.0
290
     0
  0
SCALE
  5
5A
102
{ACAD_REACTORS
330
47
102
}
330
47
100
AcDbScale
 70
     0
300
1/64" = 1'-0"
140
0.015625
141
12.0
290
     0
  0
SCALE
  5
5B
102
{ACAD_REACTORS
330
47
102
}
330
47
100
AcDbScale
 70
     0
300
1/32" = 1'-0"
140
0.03125
141
12.0
290
     0
  0
SCALE
  5
5C
102
{ACAD_REACTORS
330
47
102
}
330
47
100
AcDbScale
 70
     0
300
1/16" = 1'-0"
140
0.0625
141
12.0
290
     0
  0
SCALE
  5
5D
102
{ACAD_REACTORS
330
47
102
}
330
47
100
AcDbScale
 70
     0
300
3/32" = 1'-0"
140
0.09375
141
12.0
290
     0
  0
SCALE
  5
5E
102
{ACAD_REACTORS
330
47
102
}
330
47
100
AcDbScale
 70
     0
300
1/8" = 1'-0"
140
0.125
141
12.0
290
     0
  0
SCALE
  5
5F
102
{ACAD_REACTORS
330
47
102
}
330
47
100
AcDbScale
 70
     0
300
3/16" = 1'-0"
140
0.1875
141
12.0
290
     0
  0
SCALE
  5
60
102
{ACAD_REACTORS
330
47
102
}
330
47
100
AcDbScale
 70
     0
300
1/4" = 1'-0"
140
0.25
141
12.0
290
     0
  0
SCALE
  5
61
102
{ACAD_REACTORS
330
47
102
}
330
47
100
AcDbScale
 70
     0
300
3/8" = 1'-0"
140
0.375
141
12.0
290
     0
  0
SCALE
  5
62
102
{ACAD_REACTORS
330
47
102
}
330
47
100
AcDbScale
 70
     0
300
1/2" = 1'-0"
140
0.5
141
12.0
290
     0
  0
SCALE
  5
63
102
{ACAD_REACTORS
330
47
102
}
330
47
100
AcDbScale
 70
     0
300
3/4" = 1'-0"
140
0.75
141
12.0
290
     0
  0
SCALE
  5
64
102
{ACAD_REACTORS
330
47
102
}
330
47
100
AcDbScale
 70
     0
300
1" = 1'-0"
140
1.0
141
12.0
290
     0
  0
SCALE
  5
65
102
{ACAD_REACTORS
330
47
102
}
330
47
100
AcDbScale
 70
     0
300
1-1/2" = 1'-0"
140
1.5
141
12.0
290
     0
  0
SCALE
  5
66
102
{ACAD_REACTORS
330
47
102
}
330
47
100
AcDbScale
 70
     0
300
3" = 1'-0"
140
3.0
141
12.0
290
     0
  0
SCALE
  5
67
102
{ACAD_REACTORS
330
47
102
}
330
47
100
AcDbScale
 70
     0
300
6" = 1'-0"
140
6.0
141
12.0
290
     0
  0
SCALE
  5
68
102
{ACAD_REACTORS
330
47
102
}
330
47
100
AcDbScale
 70
     0
300
1'-0" = 1'-0"
140
12.0
141
12.0
290
     0
  0
ENDSEC
  0
EOF
